PrimaNota.ru - самый крупный в мире бесплатный архив песенных текстов, аккордов, табулатур и нот


Series 1 - Open - таба, видео

Регистрация Запомнить меня
Войти через:  Facebook Google Twitter Vk Yandex Mail.ru

Series 1 - Open - таба, видео

Печатать
Просмотров: 67
Title: Open
Album: Prequel
Artist: Series 1
Guitarist: Pepito Go
Tabbed by: Pepito Go

Ok, this is my new bands song, and I think it's really great song, and it=
's our first single.  This file is my own work.

Intro:
E|-2--------------------|
B|-3---2----------------|
G|-2---2--2-------------|
D|-----2--2--2--2-------|
A|--------2--2--3--2----|
E|-----------------3----|
Verse:  =20
E|--------------|
B|--------------|
G|--2-----------|
D|--2--2--2-----|
A|--2--2--3--2--|
E|-----------3--|
Chorus: 2x
E|--1----------5----------1---------5------3|
B|--1----------5----------1---------5------3|
G|--1----------5----------1---------5------3|
D|--3----------7----------3---------7------5|
A|--3----------7----------3---------7------5|
E|--1----------5----------1---------5------3|
Bridge: 1x
E|-7------------------------------|
B|-8---7--------------------------|
G|-7---7--7-----------------------|
D|-----7--7--7--7-----------------|
A|--------7--7--8--7--------------|
E|-----------------8--------------|
Outro: (Chorus 4x)

     
Добавлено: 15.07.2013
Вам также может быть интересно:
Другие материалы по этой песне:
  • Аккорды и текст

Страница создана 15.07.2013
http://primanota.ru/series-1/open-chords.htm
Привет, Гость.
Предлагаем пройти революционный курс по гитаре.
Подарок от PrimaNota.Ru, забирай!