PrimaNota.ru - самый крупный в мире бесплатный архив песенных текстов, аккордов, табулатур и нот


Series 1 - Clarity - аккорды и текст, видео

Регистрация Запомнить меня
Войти через:  Facebook Google Twitter Vk Yandex Mail.ru

Series 1 - Clarity - аккорды и текст, видео

Печатать
Просмотров: 84
Clarity
Series 1
Title: Clarity
Album: Identity Crisis
Series 1
Guitarist: Pepito Go
Drummer: Karthik Adimula
Bass: Justin Gaymon
Vocalist: Mac Barger

Tabbed by: Pepito Go

This is our first song, made on my dad's acoustic.  We made it into one of 
the greatest songs, and put it in Identity Crisis.  This song may be easy 
for those who know the Chords to playing guitar.

This is done in standard tuning [ebgdae]

Verse 1:
E|------------00-00-00-0--------------------|
B|-11-11-11-1-11-11-11-1--------------------|
G|-22-22-22-2-00-00-00-0--0-----------------|
D|-22-22-22-2-22-22-22-2--2- --(14x)--------|
A|------------33-33-33-3--2-----------------|
E|------------------------0-----------------|

Chorus:
Just strum C and G 10x

Verse 2:
E|------------00-00-00-0--------------------|
B|-11-11-11-1-11-11-11-1--------------------|
G|-22-22-22-2-00-00-00-0--0-----------------|
D|-22-22-22-2-22-22-22-2--2- --(14x)-22--00-|
A|------------33-33-33-3--2----------33--22-|
E|------------------------0----------00--33-|

Chorus 2:
Just strum C and G again 10x

Bridge:
Just strum: Am C G then Em  ~~Strum it how it sounds.  This song is too much 
work.

Outro:
Just pick at Am and C and Em
     
Добавлено: 27.07.2013
Вам также может быть интересно:
Другие материалы по этой песне:
  • Аккорды и текст

Страница создана 27.07.2013
http://primanota.ru/series-1/clarity-chords.htm
Привет, Гость.
Предлагаем пройти революционный курс по гитаре.
Подарок от PrimaNota.Ru, забирай!