PrimaNota.ru - самый крупный в мире бесплатный архив песенных текстов, аккордов, табулатур и нот


Serial Joe - What I See - аккорды и текст, таба, бас-таба, видео

Регистрация Запомнить меня
Войти через:  Facebook Google Twitter Vk Yandex Mail.ru

Serial Joe - What I See - аккорды и текст, таба, бас-таба, видео

Печатать
Просмотров: 192
What I See
Serial Joe
~~~~~~~~~~~~~~~~~~~~~~~~~~~~~~~~~~~~~~~~~~~~~~~~~~~~~~~
Date: 08.29.01
Song: Serial Joe - What I See
Transcribed by: Dwif   zero15@loadmail.com | 15636696 >
~~~~~~~~~~~~~~~~~~~~~~~~~~~~~~~~~~~~~~~~~~~~~~~~~~~~~~~

Legend
~~~~~~~~
h =3D hammer on


Intro/Riff:
E|----------------------------------------------------|
B|----------------------------------------------------|
G|----------------------------------------------------| 
D|-------0---0---0--0----------0---0---0--0-----------|
A|-----0--------------0------0--------------0---------|
E|-0h2-----2---2--------0h3-----3---3-----------------|

Verse:
E|----------------------------------------------------|
B|----------------------------------------------------|
G|----------------------------------------------------| 
D|-7-7-7-7-7-7-7-7-7-7-7-7-7-7-7-7--------------------|
A|-5-5-5-5-5-5-5-5-5-5-5-5-5-5-5-5--------------------|
E|----------------------------------------------------|

Pre-Chorus:
E|----------------------------------------------------|
B|----------------------------------------------------|
G|----------------------------------------------------| 
D|-2-2-2-----2-2-2-----2-2-2--------------------------|
A|-2-2-2--5--2-2-2--6--2-2-2--4--(4)------------------|
E|-0-0-0--3--0-0-0--4--0-0-0--2--(2)------------------|

Chorus:
E|----------------------------------------------------|
B|----------------------------------------------------|
G|----------------------------------------------------| 
D|-7-7-7-7-----------6-6-6-6--5-5-5-5-----------------|
A|-5-5-5-5--6-6-6-6--4-4-4-4--3-3-3-3-----------------|
E|----------4-4-4-4-----------------------------------|


Order
~~~~~~~~~~
Intro/Riff
Verse
Pre-Chorus
Chorus

You have to listen to the song to get the correct amount
of times to play these, i think its like Intro/Riff x2 then
Pre-Chorus and Chorus and repeat till solo which i did not
include in this because i couldnt figure it out.

     
Добавлено: 28.09.2013
Другие материалы по этой песне:
  • Аккорды и текст

Страница создана 21.02.2012
http://primanota.ru/serial-joe/what-i-see-chords.htm
Привет, Гость.
Предлагаем пройти революционный курс по гитаре.
Подарок от PrimaNota.Ru, забирай!