PrimaNota.ru - самый крупный в мире бесплатный архив песенных текстов, аккордов, табулатур и нот


Serial Joe - Mistake - аккорды и текст, таба, бас-таба, перевод, видео

Регистрация Запомнить меня
Войти через:  Facebook Google Twitter Vk Yandex Mail.ru

Serial Joe - Mistake - аккорды и текст, таба, бас-таба, перевод, видео

Печатать
Просмотров: 230
Mistake
Serial Joe
Band: Serial Joe
Album: Face down
Author: Jeff Danilko Jdanilko@hotmail.com

The whole song is basically one chord progression.
Here it is
       F   D   A
G-------5---------
D---3---5---5-----
A---3---3---5----
E---1-------3---
 
There is a other possibility, it is kind of hard to here which one it is

      E   B    G#
G-------4---------
D---2---4---4---
A---2---2---4---
E---0-------2---
 
I am pretty sure that the interlude part is right

G---7---9---11---13--11---
D---X---X----X----X---X----
A---5---7----9---11---9----
E------------------------------




For the outro just play the first riff, guitar 2 plays

G---2--------5------------------------
D---3-----5----5--------5--------------
A---3---3-------------5---5-----------
E---1---------------3-------------------


For any questions or comments/correction just E-Mail me








Добавлено: 27.06.2012
Другие материалы по этой песне:

Страница создана 03.03.2012
http://primanota.ru/serial-joe/mistake-chords.htm
Привет, Гость.
Предлагаем пройти революционный курс по гитаре.
Подарок от PrimaNota.Ru, забирай!