PrimaNota.ru - самый крупный в мире бесплатный архив песенных текстов, аккордов, табулатур и нот


Sergio Vallin - Classic Guitar Song - таба, видео

Регистрация Запомнить меня
Войти через:  Facebook Google Twitter Vk Yandex Mail.ru

Sergio Vallin - Classic Guitar Song - таба, видео

Печатать
Просмотров: 35
-------------------------------------------------------------------------------
                             Sergio Vallin Classic guitar song From YouTube - Sergio Vallin
-------------------------------------------------------------------------------
Tabbed by: CathLena
E-mail:epidemik72@gmail.com

https://www.youtube.com/watch?v=ebvI0OfIEX8
(The link to the song)     [El URL para la cancion]

This is my first tab, it took forever, please be nice haha
este es mi primer tab, duro bastante tiempo, gracias! 

Tuning: Eb  Ab  Db  Gb  Bb  eb

Tabbed out by ear, may not be 100%
Nomas al puro oido, alamejor no esta a el 100%

e|------0-2-3//8~~7----2---2-3-5----8-7--------3-2----2-----------------------|
B|-<12>----------------1-----------7-----------5---5--3--3--------------------|
G|-<12>----------------------------7-----------4------2----2------------------|
D|------------------------------------------2---------0-----------------------|
A|---------------------0------------------------------------------------------|
E|-<12>---------------------------7-------0-----------------------------------|


e|-2--2h3p2---------0----------------------------------2----------------------|
B|-3---------3--------3----------1----------0----------0----------------------|
G|-0-----------0--------0-------0---------4------------2----------------------|
D|-0----------------------0---4---------0------------1------------------------|
A|-3-------------3----------5---------0--------0h1h2--------------------------|
E|----------------------------------3-----------------------------------------|


e|-<12>---0-2-3////8~~-7-8---12p8h12p8-7--2--2-3-5----8-7----3-2----2---------|
B|-<12>-----------------------------------1----------7-------5---5--3--3------|
G|-<12>----------------------------------------------7-------4------2----2----|
D|----------------------------------------------------------2-------0---------|
A|----------------------------------------0-----------------------------------|
E|-<12>---------------------------------------------7-----0-------------------|


e|-2--2h3p2-------0------------------------2----------------0---------<12>----|
B|-3--------3-------3--------1-----0-------0-----------------3----------------|
G|-0----------0-------0-----0-----4--------2------------------0---------------|
D|-0--------------------0--4-----0--------1--------------------4--------------|
A|-3------------3---------5-----0----0h1h2----2-3-2-0-----------2-------------|
E|-----------------------------3----------------------3-2-0------0------------|


e|----0------0----------------------------------------------------------------|
B|-8----8-7----7----5-----5------3--0----0------------------------------------|
G|---0------0----0----0-----0--2--2--2----------------------------------------|
D|----------------------5--------------0--------------------------------------|
A|-7------5---------3---------------------------------------------------------|
E|-----------------------------2----3-----------------------------------------|


e|------------------------------------------0---------------------------------|
B|-------1--0----3-1-0--0---0--2---0------0---3-1p0---------------------------|
G|-----0------2-------2---0-------------0-------------------------------------|
D|---0---------0----------------------0---------------------------------------|
A|-0-----0--------------------------------------------------------------------|
E|----------3-2---------3---3--2---0------------------------------------------|


e|--------------------------------------------------------------------0-------|
B|-1-----1---0---0------3-0h1p0-------3-3-3-3-----3-------3-3-3---------3-----|
G|---0--------------2-----------0-----0-0-0-0-----0-------0-0-0------0--------|
D|-----0--------------0---------------4-4-4-4-----4-------4-4-4-----4---------|
A|-0-----0---3----------------------2---------0-2---2---2----------0----------|
E|---------------3--2-------------0-------------------0---------0h2-----------|


e|----------------------------------------------------------------------------|
B|---------3--3--3--3----------3-----------3--3--3--3--3----------------------|
G|---------0--0--0--0----------0-----------0--0--0--0--0----------------------|
D|---------4--4--4--4----------4-----------4--4--4--4--4----------------------|
A|-----2-----------------0--2-----2-----2-------------------------------------|
E|-0---------------------------------0----------------------------------------|


e|-------------------------0---------------------0----------------------------|
B|--------------1--0------3-1-0--0---0----------0--3--1p0---------------------|
G|------------0-------2--------2--0----2--0----0------------------------------|
D|----------0-----------0----------0---------0--------------------------------|
A|--------0-----0-------------------------------------------------------------|
E|-0h2h3-----------3--2----------3---3-2--0-----------------------------------|


e|-------------------0-------------------------0------------------------------|
B|-1----1--0-------3---1-0--0---0------------0---3-1p0------------------------|
G|--0----------2----------2---0-------0----0----------------------------------|
D|---0-----------0-----------------4-----0------------------------------------|
A|-0----0---------------------------------------------------------------------|
E|---------3---2------------3---3-----0---------------------------------------|

e|-------------------------------------------2-3-2----------------------------|
B|-1-----1--0------3-1-0-------------------5----------------------------------|
G|---0---------2---------2---------------4------------------------------------|
D|-----0---------0---------------2-4///5--------------------------------------|
A|-0-----0---------------------2----------------------------------------------|
E|----------3--2-----------0-2------------------------------------------------| 


e|-8---7--5---2--3--5--7--5-3--0-2-3--5--3--2-0-------------------------------|
B|-10--8--7---3--5------------------------------------------------------------|
G|------------------5--7--5-4--0-2-4--5--4--2-0-------------------------------|
D|------------0--------5------------------------------------------------------|
A|-0----------------------------------0---------------------------------------|
E|-----------------------------0----------------------------------------------|


e|---------------------0-----0--2h3p2-----------------------------------------|
B|-----5--4-2-4---5----1----1---3-----3---------------------------------------|
G|----2-----------2----0---0----2-------2-------------------------------------|
D|---4------------4----2--2-----0---------0-----------------------------------|
A|--2-------------2----3------------------------------------------------------|
E|-2--------------2-----------------------------------------------------------|


e|----------------------------------------------------------------------------|
B|-1----1-----0---0------1---1---0----0---------------------------------------|
G|-2----2-----2---2------2---2---1----1---------------------------------------|
D|----------------------------------------------------------------------------|
A|----------------------------------------------------------------------------|
E|-3--3----3----3----3---2--2---2---2---2-------------------------------------|


e|-0-----2-----3--2--0--------------------------------------------------------|
B|----------------------0--3----3-----1----1----------------------------------|
G|-0-----2-----4--2--0--0--4----4-----2----2----------------------------------|
D|----------------------------0----0-----0----0-------------------------------|
A|----------------------------------------------------------------------------|
E|-0--0-----0-----------------------------------------------------------------|


e|-----------------0--------------------------0---------------<12>------------|
B|---------------4---4--------------------------3-----------------------------|
G|-------------5-------5--------------------------0---------------------------|
D|-----------4-----------4--------------------------4-------------------------|
A|-2h3p20h2----------------2---2-3-2-0----------------2-----------------------|
E|-------------------------------------3-2-0------------0---------------------|

Si ven algo que necesita arreglo dejenme saber
If you guys see anything wrong with this lemme know and I'll fix it!

************************************

| /   slide up
| \   slide down
| h   hammer-on
| p   pull-off
| ~   vibrato
| <>   harmonic

************************************
Добавлено: 09.04.2016
Другие материалы по этой песне:
  • Аккорды и текст

Страница создана 09.04.2016
http://primanota.ru/sergio-vallin/classic-guitar-song-chords.htm
Привет, Гость.
Предлагаем пройти революционный курс по гитаре.
Подарок от PrimaNota.Ru, забирай!