PrimaNota.ru - самый крупный в мире бесплатный архив песенных текстов, аккордов, табулатур и нот


Sergey Stepanov - Epic Sax Guy - аккорды и текст, таба, видео

Регистрация Запомнить меня
Войти через:  Facebook Google Twitter Vk Yandex Mail.ru

Sergey Stepanov - Epic Sax Guy - аккорды и текст, таба, видео

Печатать
Просмотров: 315
Epic Sax Guy
Sergey Stepanov
CHORDS!!!
CAPO 6: Am, Bb, F, E

TAB!!!
CAPO 6

|-0------0----0--0-----0--|-0------0----0--0-----0--|-0------3/0-------|------------------|
|-------------------3-----|-------------------3-----|------------3/1---|--------0--1------|
|-------------------------|-------------------------|------------------|--2--2--------2---|
|-------------------------|-------------------------|------------------|------------------|
|-------------------------|-------------------------|------------------|------------------|
|-------------------------|-------------------------|------------------|------------------|



|-0------0----0--0-----0--|-0------0----0--0-----0--|-0------3/0-------|------------------|
|-------------------3-----|-------------------3-----|------------3/1---|--------0--1------|
|-------------------------|-------------------------|------------------|--2--2--------2---|
|-------------------------|-------------------------|------------------|------------------|
|-------------------------|-------------------------|------------------|------------------|
|-------------------------|-------------------------|------------------|------------------|
Добавлено: 29.12.2015
Другие материалы по этой песне:

Страница создана 25.03.2012
http://primanota.ru/sergey-stepanov/epic-sax-guy-chords.htm
Привет, Гость.
Предлагаем пройти революционный курс по гитаре.
Подарок от PrimaNota.Ru, забирай!