PrimaNota.ru - самый крупный в мире бесплатный архив песенных текстов, аккордов, табулатур и нот


Сергей Бондаренко - К/ф Сирота Казанская - аккорды и текст, видео

Регистрация Запомнить меня
Войти через:  Facebook Google Twitter Vk Yandex Mail.ru

Сергей Бондаренко - К/ф Сирота Казанская - аккорды и текст, видео

Печатать
Просмотров: 121
К/ф Сирота Казанская
Сергей Бондаренко
Огромная благодарность Евгению Павлову за разбор.

I:   Вступление A#sus4 A#m A#sus2 F

A#m (113321)
A#sus2 (113311)
A#sus4 (113341)


II: A#m\' (1) (2) Ebm F\' (3) F A#7sus4 A#7

A#m\'      (688666)
(1)       (686696)
(2)       (668676)
Ebm     (668876)
F\'         (968676)
(3)       (8x887x)
A#7sus4 (113141)
A#7        (113131)

III: Ebm x3 Ab Dbmaj (4) A#7
Ebm7 (5) (6) F7sus4 A#7sus4 A#7

Ebm x3 Ab Dbmaj  Db7 (7) 
(8) F7sus4 F

Dbmaj  (446564)
(4)       (x2x101)
Ebm7   (668676)
(5)       (8x887x)
(6)       (6xx664)
F7sus4 (131311)
(7)       (1x1222)  квинта в фа-диезе
(8)       (х35334)  некая до

E|------------------|--6-986-986-----|---------------|
B|-6-5-7-6----------|6----------976--|7-6-9-7-----6--|
G|---------6-6-5-8-6|---------------8|-------8-8-7--8|

E|--8-11-9-8-11-------9-8---|
B|--------------11-10----11-|
G|11------------------------|


E|-----------------|------------------------------|
B|--967~-967~-967~|---6-5--56~-756-796-656-976--|
G|-----------------|5-6----8---------------------8|
D|-8---------------|----------------------------8-|

E|-----------------|
B|-6--67---6----656|
G|--78--656-8685---|
D|------------------|

E|-----------------|---9886--------|
B|--967~-967~-967~|-67----6756-796|
G|-----------------|---------------|
D|-8---------------|---------------|

E|----------------|--86----756----|
B|-5698765--978---|89--8910---978-|
G|-------------645|---------------|
D|----------------|---------------|
Добавлено: 04.06.2016
Другие материалы по этой песне:
  • Аккорды и текст

Страница создана 04.06.2016
http://primanota.ru/sergei-bondarenko/k-f-sirota-kazanskaya-chords.htm
Привет, Гость.
Предлагаем пройти революционный курс по гитаре.
Подарок от PrimaNota.Ru, забирай!