PrimaNota.ru - самый крупный в мире бесплатный архив песенных текстов, аккордов, табулатур и нот


Serge Gainsbourg - Talkie Walkie - аккорды и текст, видео

Регистрация Запомнить меня
Войти через:  Facebook Google Twitter Vk Yandex Mail.ru

Serge Gainsbourg - Talkie Walkie - аккорды и текст, видео

Печатать
Просмотров: 158
Уроки эстрадного вокала в Санкт-Петербурге
Talkie Walkie
Serge Gainsbourg
Serge Gainsbourg, Le talkie-Walkie (Couleur café - 1963)

Transcribed and tabbed by : Tristan Israel
(tristan.israel@www.tibsys.com)



Couplet :

    D7M  
e-|-----2----2--------|-----2----2--------|
B-|-----2----2--------|-----2----2--------|
G-|-----2----2--------|-----2----2--------|
D-|--0--0----0--------|--0--0----0--------|
A-|--0--0----0--------|--0--0----0--------|
E-|--2--2----2--------|--2--2----2--------|
 

    D7M  
e-|-----2----2--------|-----2----2--------|
B-|-----2----2--------|-----2----2--------|
G-|-----2----2--------|-----2----2--------|
D-|--0--0----0--------|--0--0----0--------|
A-|--0--0----0--------|--0--0----0--------|
E-|--2--2----2--------|--2--2----2--------|


    D7M  
e-|-----2----2--------|-----2----2--------|
B-|-----2----2--------|-----2----2--------|
G-|-----2----2--------|-----2----2--------|
D-|--0--0----0--------|--0--0----0--------|
A-|--0--0----0--------|--0--0----0--------|
E-|--2--2----2--------|--2--2----2--------|

        J'avais ...         Un talkie-walkie 


Refrain :

    Em                  D7
e-|--0---0---0---0---|--2---2---2---2---|
B-|--0---0---0---0---|--1---1---1---1---|
G-|--0---0---0---0---|--2---2---2---2---|
D-|--2---2---2---2---|--0---0---0---0---|
A-|--2---2---2---2---|--0---0---0---0---|
E-|--0---3---2---0---|--2-------3---2---|
    J'avais donné...

...

    Em                  D7
e-|--0---0---0---0---|--2---2---2---2---|
B-|--0---0---0---0---|--1---1---1---1---|
G-|--0---0---0---0---|--2---2---2---2---|
D-|--2---2---2---2---|--0---0---0---0---|
A-|--2---2---2---2---|--0---0---0---0---|
E-|--0---3---2---0---|--2-------3---2---|
                     ... N'importe où



Pont :

e-|------------------|
B-|------------------|
G-|------------------|
D-|------------4-----|
A-|--0-3---2---------|
E-|------------2-----|



...Couplet


     
Добавлено: 14.09.2013
Другие материалы по этой песне:
  • Аккорды и текст

Страница создана 14.09.2013
http://primanota.ru/serge-gainsbourg/talkie-walkie-chords.htm
Привет, Гость.
Предлагаем пройти революционный курс по гитаре.
Подарок от PrimaNota.Ru, забирай!