PrimaNota.ru - самый крупный в мире бесплатный архив песенных текстов, аккордов, табулатур и нот


Serge Gainsbourg - Requiem Pour Un Twister - бас-таба, видео

Регистрация Запомнить меня
Войти через:  Facebook Google Twitter Vk Yandex Mail.ru

Serge Gainsbourg - Requiem Pour Un Twister - бас-таба, видео

Печатать
Просмотров: 114
Уроки эстрадного вокала в Санкт-Петербурге
 ----------------------------------------------------------------------------------------------------
                                         -
----------------------------------------------------------------------------------------------------

Album :  Serge Gainsbourg N° 4 (1962)
Tempo : 120
E-mail: gwendal.mollo@orange.fr
Tabbed by: newg

Contrebasse adapter pour une basse.

    Riff principale : 
 G |---------------|     |---------------|
 D |---------------|     |------------5--|
 A |-3---6---5-----|  ou |-3---6---5-----|
 E |-------------3-|     |---------------|

     Variations :
 G |----------------------|
 D |---------------5-5----|
 A |-3---6---5----------0-|
 E |-------------3--------|


    Riff transition :

 G |-3-5---3-----------------|
 D |----------5-3--5-3-------|
 A |---------------------5-3-|
 E |-------------------------|
Добавлено: 21.09.2015
Другие материалы по этой песне:
  • Аккорды и текст

Страница создана 21.09.2015
http://primanota.ru/serge-gainsbourg/requiem-pour-un-twister-chords.htm
Привет, Гость.
Предлагаем пройти революционный курс по гитаре.
Подарок от PrimaNota.Ru, забирай!