PrimaNota.ru - самый крупный в мире бесплатный архив песенных текстов, аккордов, табулатур и нот


Seress Reszo - Gloomy Sunday - таба, видео

Регистрация Запомнить меня
Войти через:  Facebook Google Twitter Vk Yandex Mail.ru

Seress Reszo - Gloomy Sunday - таба, видео

Печатать
Просмотров: 73
gloomy sunday // trauriger sonntag
~~~~~~~~~~~~~~~~~~~~~~~~~~~~~~
Original von: Reszo Seress (Ungarischer Komponist)
tabbed by: florian lippmann
E-mail: Neither438@web.de

normal gestimmt (E A D g h e)
---
Effekt: Overdrive (sehr gut) oder akkustik
h= draufhämmern (Note akkzentiert laut spielen)
s= sliden (auf dem Bundstab rutschen)


1 (e)|:----------------------------------------------------------------------- 
2 (h)|:------------------------------------------------------------------------
3 (g)|:---------------------------5-5-5----8-7-5--8-5-7--8-7-5--h4-s5s7--
4 (D)|:----------1-1-1--5-5-5------------------------------------------------
5 (A)|:--3-3-3----------------------------------------------------------------
6 (E)|:-----------------------------------------------------------------------
-

1|:----------------------------------------------------------------------
2|:----------------------------------------------------------------------
3|:-5-3-1--5-3-1--5-3-1--0-0-0--------------------------------------
4|:----------------------------------5-3-1--5-3-1--5-3-1--0-0-0-----
5|:----------------------------------------------------------------------
6|:----------------------------------------------------------------------

1|:-------------         -----------------
2|:-------------         -----------------
3|:-------------         --------555~ ---
4|:-3s5--------     oder --3s5--555~ ---
5|:------3~----         --------333~ ---
6|:-------------         -----------------

Man kann das ganze natürlich noch durch ein paar Slides, Bendings hier und
da aufwerten.
Ich habe übrigens diese Melodie nach der
Piano Original Version aus dem deutschen Film aufgeschrieben.
Und wenn ihr was zu meckern habt oder den tab einfach nur gut findet
dann schickt mir mal ne E-mail!

Viel Spaß!
     
Добавлено: 14.10.2013
Другие материалы по этой песне:
  • Аккорды и текст

Страница создана 08.10.2013
http://primanota.ru/seress-reszo/gloomy-sunday-chords.htm
Привет, Гость.
Предлагаем пройти революционный курс по гитаре.
Подарок от PrimaNota.Ru, забирай!