PrimaNota.ru - самый крупный в мире бесплатный архив песенных текстов, аккордов, табулатур и нот


Seremedy - No Escape - таба, видео

Регистрация Запомнить меня
Войти через:  Facebook Google Twitter Vk Yandex Mail.ru

Seremedy - No Escape - таба, видео

Печатать
Просмотров: 264
Авторы музыки: YOHIO
Авторы текста: YOHIO
http://www.universal-music.co.jp/seremedy/

C#|-----------------------------------------------|
G#|-----------------------------------------------|
 E|-----------------------------------------------|
 B|--------------------------------------------3--|
F#|-----5--------5--------6--------5--------3--3--|
 B|-0------0--0-----0--0-----0--0-----0--0-----3--|

C#|---------------------------------------|
G#|---------------------------------------|
 E|---------------------------------------|
 B|-3--------3-----5--8-----------7-------|
F#|----3--3-----3--5------5---5-------5---|
 B|----3--3-----3--5------5---5-------5---|


C#|-----------------------------------------------|
G#|-----------------------------------------------|
 E|-----------------------------------------------|
 B|--------------------------------------------3--|
F#|-0---5--------5--------6--------5--------3--3--|
 B|-0------0--0-----0--0-----0--0-----0--0-----3--|

C#|---------------------------------------|
G#|---------------------------------------|
 E|---------------------------------------|
 B|-3--------3-----5--8-----------7-------|
F#|----3--3-----3--5------5---5-------5---|
 B|----3--3-----3--5------5---5-------5---|


C#|------------------------------|------------------------------|
G#|------------------------------|------------------------------|
 E|------------------------------|------------------------------|
 B|------------------------------|------------------------------|
F#|------------------------------|------------------------------|
 B|-----0--------0---0-----------|-0--------0---0---------------|

C#|------------------------------|------------------------------|
G#|------------------------------|------------------------------|
 E|------------------------------|------------------------------|
 B|------------------------------|------------------------------|
F#|------------------------------|------------------------------|
 B|-----0--------0---0-----------|-0--------0---0---------------|


C#|-------------------------------------|
G#|-------------------------------------|
 E|-------------------------------------|
 B|-15-15-15-15-10-10-12-12-12-12-14----|
F#|-13-13-13-13-8--8--10-10-10-10-12----|
 B|-------------------------------------|

                        "So many voices in my head..."
C#|-----------------------------|-----------------------------|
G#|-----------------------------|-----------------------------|
 E|-----------------------------|-----------------------------|
 B|-----------------------------|-----------------------------|
F#|-0----0----0-----------------|-8----8----------------------|
 B|-0----0----0-----------------|-8----8----------------------|


C#|-----------------------------|------------------------------|
G#|-----------------------------|------------------------------|
 E|-----------------------------|------------------------------|
 B|-----------------------------|------------------------------|
F#|-0----0----0-----------------|-8----8----8------------------|
 B|-0----0----0-----------------|-8----8----8------------------|



                        "There was no choice I had to make...."
C#|---------------------------------|-----------------------------------|  
G#|---------------------------------|-----------------------------------|       
 E|---------------------------------|-----------------------------------|       
 B|---------------------------------|-----------------------------------|       
F#|-0--------0---0--0--0--------0---|-0--0--0----0--0-------------------|       
 B|-0--------0---0--0--0--------0---|-0--0--0----0--0-------------------|       
                                                                                        
C#|---------------------------------|-----------------------------------|       
G#|---------------------------------|-----------------------------------|       
 E|---------------------------------|-----------------------------------|       
 B|---------------------------------|-----------------------------------|       
F#|-0--------0---0--0--0--------0---|-0--0--0----0--0-------------------|       
 B|-0--------0---0--0--0--------0---|-0--0--0----0--0-------------------|       
                                                                            (x2)
                                                                                        
C#|---------------------------------|-----------------------------------|       
G#|---------------------------------|-----------------------------------|       
 E|---------------------------------|-----------------------------------|       
 B|-8--------8---------8---------8--|-------8---------------------------|       
F#|-8--------8---8--8--8---------8--|-8--8--8----8--8-------------------|       
 B|-8--------8---8--8--8---------8--|-8--8--8----8--8-------------------|       
                                                                                        
C#|---------------------------------|-----------------------------------|       
G#|---------------------------------|-----------------------------------|       
 E|---------------------------------|-----------------------------------|       
 B|-8--------8---------8---------8--|-------8---------------------------|       
F#|-8--------8---8--8--8---------8--|-8--8--8----8--8-------------------|       
 B|-8--------8---8--8--8---------8--|-8--8--8----8--8-------------------|  



        Small guitar solo:
C#|-------------13----------13-15-13-15-17-15-17-18--17------------------|
G#|-15-14-15-17----17-15-17----------------------------------------------|
 E|----------------------------------------------------------------------|
 B|----------------------------------------------------------------------|
F#|----------------------------------------------------------------------|
 B|----------------------------------------------------------------------|

                   pm                         pm pm pm                  
C#|----------|-----------|----------|-----------------|
G#|----------|-----------|----------|-----------------|
 E|----------|-----------|----------|-----------------|
 B|-0--------|--8--8--8--|--3---3---|--7---7--8--7--3-|
F#|-0--------|--8--8--8--|--3---3---|--7---7--8--7--3-|
 B|-0--------|--8--8--8--|--3---3---|--7---7--8--7--3-|

C#|-----------|-----------|----------|----------------|
G#|-----------|-----------|----------|----------------|
 E|-----------|-----------|----------|----------------|
 B|-0----0----|--8--8--8--|--3---3---|--7-------------|
F#|-0----0----|--8--8--8--|--3---3---|--7-------------|
 B|-0----0----|--8--8--8--|--3---3---|--7-------------|



C#|----------------|---------|----------------|---------|
G#|----------------|---------|----------------|---------|
 E|----------------|---------|----------------|---------|
 B|-0--8--------8--|--0--3---|-0--8--------8--|--0--3---|
F#|-0--8--0-0-0-8--|--0--3---|-0--8--0-0-0-8--|--0--3---|
 B|-0--8--0-0-0-8--|--0--3---|-0--8--0-0-0-8--|--0--3---| x4


C#|-----------|------------|---------------|-----------|-----------|
G#|-----------|------------|---------------|-----------|-----------|
 E|-----------|------------|---------------|-----------|-----------|
 B|-8--8--8---|--8--8--8---|--8\0--0--0----|--0--0--0--|---0--0----|
F#|-8--8--8---|--8--8--8---|--8\0--0--0----|--0--0--0--|---0--0----|
 B|-8--8--8---|--8--8--8---|--8\0--0--0----|--0--0--0--|---0--0----| x3



C#|-----------|------------|------|
G#|-----------|------------|------|
 E|-----------|------------|------|
 B|-8--8--8---|--8--8--8---|--8\--|
F#|-8--8--8---|--8--8--8---|--8\--|
 B|-8--8--8---|--8--8--8---|--8\--|

        
C#|-------------13----------13-15-13-15-17-15-17-18--17------------------|
G#|-15-14-15-17----17-15-17----------------------------------------------|
 E|----------------------------------------------------------------------|
 B|----------------------------------------------------------------------|
F#|----------------------------------------------------------------------|
 B|----------------------------------------------------------------------|

                   pm                         pm pm pm                  
C#|----------|-----------|----------|-----------------|
G#|----------|-----------|----------|-----------------|
 E|----------|-----------|----------|-----------------|
 B|-0--------|--8--8--8--|--3---3---|--7---7--8--7--3-|
F#|-0--------|--8--8--8--|--3---3---|--7---7--8--7--3-|
 B|-0--------|--8--8--8--|--3---3---|--7---7--8--7--3-|

C#|-----------|-----------|----------|----------------|
G#|-----------|-----------|----------|----------------|
 E|-----------|-----------|----------|----------------|
 B|-0----0----|--8--8--8--|--3---3---|--5-------------|
F#|-0----0----|--8--8--8--|--3---3---|--5-------------|
 B|-0----0----|--8--8--8--|--3---3---|--5-------------|


C#|-----------------------------------------------|
G#|-----------------------------------------------|
 E|-----------------------------------------------|
 B|--------------------------------------------3--|
F#|-----5--------5--------6--------5--------3--3--|
 B|-0------0--0-----0--0-----0--0-----0--0-----3--|

C#|---------------------------------------|
G#|---------------------------------------|
 E|---------------------------------------|
 B|-3--------3-----5--8-----------7-------|
F#|----3--3-----3--5------5---5-------5---|
 B|----3--3-----3--5------5---5-------5---|

C#|-----------------------------------------------|
G#|-----------------------------------------------|
 E|-----------------------------------------------|
 B|--------------------------------------------3--|
F#|-----5--------5--------6--------5--------3--3--|
 B|-0------0--0-----0--0-----0--0-----0--0-----3--|

C#|-----------------------------------------------|
G#|-----------------------------------------------|
 E|-----------------------------------------------|
 B|-3--------3-----5---8--7--5--------------------|
F#|----3--3-----3--5------------8--7--------------|
 B|----3--3-----3--5------------------------------|



GUITAR-SOLO

C#|-----------12-13-12---------|-----------15-17-15-------|
G#|--15----15-----------15-----|--18----18----------18----|
 E|-----14-----------------14--|-----17----------------17-|
 B|----------------------------|--------------------------|
F#|----------------------------|--------------------------|
 B|----------------------------|--------------------------|

C#|----------8-10-8-----|------9--12-----------12--15-------|
G#|-11----11---------11-|---10-------10-----13--------13----|
 E|----10---------------|-9--------------12--------------12-|
 B|---------------------|-----------------------------------|
F#|---------------------|-----------------------------------|
 B|---------------------|-----------------------------------|

C#|-----------12-13-12---------|-----------15-17-15----|
G#|--15----15-----------15-----|--18----18----------18-|
 E|-----14-----------------14--|-----17----------------|
 B|----------------------------|-----------------------|
F#|----------------------------|-----------------------|
 B|----------------------------|-----------------------|

C#|--10-13-12-13---10-13-12-13-|--9-12-10-12---9-12-10-12-|
G#|----------------------------|--------------------------|
 E|----------------------------|--------------------------|
 B|----------------------------|--------------------------|
F#|----------------------------|--------------------------|
 B|----------------------------|--------------------------|



C#|-15-18-17-18--15-18-17-18--|-12-15-13-15-12-15-13-15--|
G#|---------------------------|--------------------------|
 E|---------------------------|--------------------------|
 B|---------------------------|--------------------------|
F#|---------------------------|--------------------------|
 B|---------------------------|--------------------------|


C#|-13-17-15-17-13-17-15-17--|
G#|--------------------------|
 E|--------------------------|
 B|--------------------------|
F#|--------------------------|
 B|--------------------------|

C#|-22-20-18-17-15-----------12-15-13-15-12-15-13-15--|
G#|---------------18-17-15----------------------------|
 E|---------------------------------------------------|
 B|---------------------------------------------------|
F#|---------------------------------------------------|
 B|---------------------------------------------------|

C#|---9-12-10-12----9-12-10-12-|-10-13-12-13--12-15-13-15-|
G#|----------------------------|--------------------------|
 E|----------------------------|--------------------------|
 B|----------------------------|--------------------------|
F#|----------------------------|--------------------------|
 B|----------------------------|--------------------------|

C#|--13-17-15-17-14-17-15-17-|
G#|--------------------------|
 E|--------------------------|
 B|--------------------------|
F#|--------------------------|
 B|--------------------------|

C#|-15-18-17-18--15-18-17-18--|-12-15-13-15-12-15-13-15--|
G#|---------------------------|--------------------------|
 E|---------------------------|--------------------------|
 B|---------------------------|--------------------------|
F#|---------------------------|--------------------------|
 B|---------------------------|--------------------------|

C#|-13-17-15-17-13-17-15-17--|
G#|--------------------------|
 E|--------------------------|
 B|--------------------------|
F#|--------------------------|
 B|--------------------------|

C#|-22-20-18-17-15-----------12-15-13-15-12-15-13-15--|
G#|---------------18-17-15----------------------------|
 E|---------------------------------------------------|
 B|---------------------------------------------------|
F#|---------------------------------------------------|
 B|---------------------------------------------------|

C#|-9-12-10-12-9-12-10-12-|-10-13-12-13-12-15-13-15-|
G#|-----------------------|-------------------------|
 E|-----------------------|-------------------------|
 B|-----------------------|-------------------------|
F#|-----------------------|-------------------------|
 B|-----------------------|-------------------------|

C#|-13-17-15-17--14-17-15-17-|
G#|--------------------------|
 E|--------------------------|
 B|--------------------------|
F#|--------------------------|
 B|--------------------------|

C#|-18-17-15---------------------------------------------------------------|
G#|----------18-17-15-18-17-15---------------------------------------------|
 E|----------------------------17-15-14-17-15-14------------------12-14-15-|
 B|----------------------------------------------17-15-14-12-14-15---------|
F#|------------------------------------------------------------------------|
 B|------------------------------------------------------------------------|

C#|----------------------------------------------15-17-18-----17----|
G#|----------------------------15-17-18-15-17-18--------------------|
 E|----------12-14-15-14-15-17--------------------------------------|
 B|-12-14-15--------------------------------------------------------|
F#|-----------------------------------------------------------------|
 B|-----------------------------------------------------------------|

Добавлено: 11.07.2013
Другие материалы по этой песне:

Страница создана 11.07.2013
http://primanota.ru/seremedy/no-escape-chords.htm
Привет, Гость.
Предлагаем пройти революционный курс по гитаре.
Подарок от PrimaNota.Ru, забирай!