PrimaNota.ru - самый крупный в мире бесплатный архив песенных текстов, аккордов, табулатур и нот


Серега - Король Ринга - аккорды и текст, видео

Регистрация Запомнить меня
Войти через:  Facebook Google Twitter Vk Yandex Mail.ru

Серега - Король Ринга - аккорды и текст, видео

Печатать
Просмотров: 181
Король Ринга
Серега
E  ----------------------------------------------------|
B  ----------------------------------------------------|
G  --------------4-----------------------4-------------|
D  --2--5--4--5-----5--4--5--2--5--4--5-----5--4--5----|
A  ----------------------------------------------------|
E  --0-----------------------0-------------------------|

E  ----------------------------------------------------|
B  ----------------------------------------------------|
G  --------------4-----------------------4-------------|
D  --2--5--4--5-----5--4--5--2--5--4--5-----5--4--5----|
A  --3-----------------------3-------------------------|
E  ----------------------------------------------------|


А что это за парень, о котором треск и шорох
Вышел в ринг, готовый растереть любого в пыль и порох?
Все говорят он молод, его кулак - молот,
Тату исколот, он давно для драки ищет повод.
Наводит страху на бойцов парнишка «свой в рубаху»
Бьет - взмах, в пух и прах тех, кто метит ниже паху.
Он вышел ростом и весит бодрых девяносто,
И с ног его, ребята, сбить запросто не просто.
Размах хлесткий, удар жеский, да кто же он?
Что там еще за новый чемпион прет на рожон?
Тот, о котором все вдруг говорят вокруг
Должен выйти в ринг и показать, что он точно крут.

King ring.. king ring.. king ring...

С виду борз, значит тот еще у парня ворс,
Разведка джебом в корпус, сразу виден стиль и форс,
Не знает лишних движений, он без сомнений гений -
Быстрее тени достает до солнечных сплетений.
Откуда сила, бойцовая шальная жила
Бьет с обеих рук, вдруг - хук, острый будто шило.
Газеты пишут: «Зол и агрессивен, примитивен»,
Однако интерес у парня вполне спортивен:
Не для забавы ради, не ради миллионов
Парнишка безымянный вырубает чемпионов.
Кто тот, кто из года в год жал свой пот, чтобы взять джек-пот
И вот он сейчас проводит апперкот?

King ring... king ring... king ring...
No1
Я сказал: «Мне не нужна корона, я передумал!»

Скажите, что это за клоун, что это за парень?
Король всегда в ударе, хочешь бокс - постой с ним в паре,
Дурная какова цена у короны.. Эй, чемпионы, тренируй нырки и уклоны..
Снова стойка, бойко проходит двойка,
Стольким стойкам нужны потом шитье и кройка..
Парнишка собственную тень послал бы в knock-down
Первый раунд, последний раунд, финиш, баста, count down
Так что это за парень, о котором шум и гам?
Вышел в ринг, готовый жвать канаты как будто bubble gum!
Короны свинг, всем блевать на пол свой short drink
Видишь корону в кольце - запомни, это king ring!
Добавлено: 12.08.2015
Другие материалы по этой песне:
  • Аккорды и текст

Страница создана 12.08.2015
http://primanota.ru/serega/korol-ringa-chords.htm
Привет, Гость.
Предлагаем пройти революционный курс по гитаре.
Подарок от PrimaNota.Ru, забирай!