PrimaNota.ru - самый крупный в мире бесплатный архив песенных текстов, аккордов, табулатур и нот


Seraphim - Sonnet Of The Black Angel - бас-таба, видео

Регистрация Запомнить меня
Войти через:  Facebook Google Twitter Vk Yandex Mail.ru

Seraphim - Sonnet Of The Black Angel - бас-таба, видео

Печатать
Просмотров: 66
ARTIST  -SERAPHIM
SONG    -SONNET OF THE BLACK ANGEL
TABBED -NICK BILLINGTON 
CONTACT-
          seraphim@uk.dreamcast.com

TUNING (B, F#, B, E, A)

NOTATION

r- REST/MUTE
e(SUPERSCRIPT)- ENDING
»-TIE TO NEXT RIFF/PROGRESSION
b-BEND STRING
r-RELEASE BEND(BACK TO NORMAL POSITION)

INTRO

F#--------3---------
 B--1------------4--

MAIN RIFF(CHORUS)

                    1,2,3e      4e
F#--------------|-------|------|
 B--5-4-4-4-5-4-|--0----|---3~-|

VERSE 1

F#-----------------------------------------
 B-5-5-5-5-5r-5-1-1-1-1-1r-1-4-4-4-4-4r-4-0-0-

F#---------|
 B-0-0-0-r-|

VERSE 2

F#----------------------------------------
 B-5-5-5-5-5r-5-1-1-1-1-1r-1-0-0-0-0-0r-0-3-

F#----------|
 B-3-3-3-3r-|    X2 , THEN.....

F#---------------------------------------
 B-5-5-5-5-5-5-5-5-1-1-1-1-1-1-1-1-4-4-4-4-

F#--------------------------|
 B-4-4-4-4-0-0-0-0-0-0-0-0--|   X2

ON 4e OF THE VERSE RIFFS ADD THE FOLLOWING 
AS A LEADIN' TO THE PRE-CHORUS

F#---------
 B-1h3-3h4-
 
PRE-CHORUS

 B-------------------2------------------
F#-------5---------0--1-4------1--------
 B--5---------8------------1--------3---

INTERLUDE

                             1e        2e
F#------3-------------|-------|--------|
 B--1--1----5-4---5-7-|-7-5-4-|-7-5-7--|   

LAST CHORUS (4e)

 B-------------6-------
F#-----5-4-7-5---4-2»--
 B-5-4-----------------
   (run)

OK, NOW THE OUTRO, WHICH  IS ALMOST A 
STAND ALONE SONG IN ITS OWN RIGHT.
TO MAKE IT EASIER TO UNDERSTAND ILL RIGHT
EACH INDIVIDUAL BAR AND THEN ADD A FORMAT
LIST AT THE END

OUTRO

RIFF A

F#-2-2/5---------------
 B-------4-5-7---------

RIFF B

F#-2-2/5------7-5----
 B--------4-5--------

RIFF C

F#-2-2/5--------
 B-------4-5-2--

RIFF D

F#-2-2/5-------------------------
 B--------4-5-7-7r-7-7r-7-7-7-7-5\

RIFF E
 
 B---------7----------7\-----------
F#-2-2/5-----------7----------------
 B-------4---5-5-7------------------

RIFF F

 B----------7------------------
F#-2-2/5------------7-5--------
 B--------4---5-5-7-------------

RIFF G

 B-----------------------
F#-2-2/5-----------------
 B-------4-5-5-2-5-2-----

RIFF H

F#-2--------------
 B----4-5-7-------

RIFF I

F#-2/14b-r-b-r---
 B---------------

OK THATS THE WHOLE TAB. HERES THE 
STRUCTURE FOR THE OUTRO.

RIFF A,B,C,D,E,F,G,A,H,I

OK THATS ALL FOLKS.

     
Добавлено: 08.10.2013
Вам также может быть интересно:
Другие материалы по этой песне:
  • Аккорды и текст

Страница создана 08.10.2013
http://primanota.ru/seraphim/sonnet-of-the-black-angel-chords.htm
Привет, Гость.
Предлагаем пройти революционный курс по гитаре.
Подарок от PrimaNota.Ru, забирай!