PrimaNota.ru - самый крупный в мире бесплатный архив песенных текстов, аккордов, табулатур и нот


Seraphim - So Strong - бас-таба, видео

Регистрация Запомнить меня
Войти через:  Facebook Google Twitter Vk Yandex Mail.ru

Seraphim - So Strong - бас-таба, видео

Печатать
Просмотров: 89
Уроки эстрадного вокала в Санкт-Петербурге
ARTIST-SERAPHIM
SONG-SO STRONG
TABBED BY-NICK BILLINGTON 
           seraphim1@uk.dreamcast.com

TUNING (B, F#, B, E, A)

INTRO

F#---------------
 B-1--1--1-1-1--1-

LAST MEASURE

F#---------/6-6-6--
 B-1--1--1----------

CHORUS RIFF

F#-------------6-6-6-6-6-0-0-0-0-------
 B-3h5-5-5-5--5------------------1r1r1r-

F#-------------6-6-6-6-6-0-0-0-0------------ B-3h5-5-5-5--5-------------
-----1-0-1-/5-0-3
VERSE

F#---------
 B-3h5-5-r-

RUN PART ON VERSE

 B-3-3-3---------------------
F#-------6-5-6-3-5-----------
 B-----------------0-3-3h5-5--

VERSE VARIATION

F#--------
 B-3-1-0-1-

F#-----------
 B-5-7h8-7-5-

INTERLUDE LEADOUT

F#------------------------/6-6-6----
 B-5--5--5-5--5--5-5--5--5----------

OUTRO

F#--------------6-6-6-6-6-0-0-0-0----------
 B-3h5-5-5-5--5-------------------1-1-1-3-3-3
THATS ALL FOLKS!

     
Добавлено: 07.12.2013
Другие материалы по этой песне:
  • Аккорды и текст

Страница создана 07.12.2013
http://primanota.ru/seraphim/so-strong-chords.htm
Привет, Гость.
Предлагаем пройти революционный курс по гитаре.
Подарок от PrimaNota.Ru, забирай!