PrimaNota.ru - самый крупный в мире бесплатный архив песенных текстов, аккордов, табулатур и нот


Seraphim - Oblivion Heights - бас-таба, видео

Регистрация Запомнить меня
Войти через:  Facebook Google Twitter Vk Yandex Mail.ru

Seraphim - Oblivion Heights - бас-таба, видео

Печатать
Просмотров: 74
ARTIST- SERAPHIM
SONG-OBLIVION HEIGHTS, 
       TAKE FROM THE AS YET UNTITLED 
       FOLLOW-UP EP
TABBED BY - NICK BILLINGTON
              seraphim@uk.dreamcast.com

TUNING (B, F#, B, E, A)

THE SONG IS BASED AROUND 2 SCALES, MINOR 
NATURAL, AND DIMINISHED HALF TONE

INTRO AND VERSES

F#-----------------0m-0------------------
 B--4m-4---0m-0-----------2m-2-----------

FIRST INTERLUDE

F#-------------------
 B-2-0-2-3-3-2-2-0-0-

SECOND INTERLUDE

                1st,2nd,3rd end   4th end

 B-2-0-2-3-3|-2-2-0-0-------|-5-5-5-R---
F#----------|---------------|-----------
 B----------|---------------|-----------

THEN.....

F#----------------0-0-0-0---------   X3
 B-6-6-6-6-6-6-6-6--------3-3-3-3-

F#---------------------3-2-0--3-2-0--3-2-0-
 B-2-2-2-2-2-2-2-2-3-3-------5------5------5

OUTRO

F#-------------------------
 B-4-4-2-0-4-6-7-9-7-6-4-2-

THATS ALL FOLKS!

     
Добавлено: 27.10.2013
Другие материалы по этой песне:
  • Аккорды и текст

Страница создана 10.08.2013
http://primanota.ru/seraphim/oblivion-heights-chords.htm
Привет, Гость.
Предлагаем пройти революционный курс по гитаре.
Подарок от PrimaNota.Ru, забирай!