PrimaNota.ru - самый крупный в мире бесплатный архив песенных текстов, аккордов, табулатур и нот


Seraphim - My Silver Town - бас-таба, видео

Регистрация Запомнить меня
Войти через:  Facebook Google Twitter Vk Yandex Mail.ru

Seraphim - My Silver Town - бас-таба, видео

Печатать
Просмотров: 67
ARTIST-SERAPHIM
SONG-MY SILVER TOWN
TABBED BY-NICK BILLINGTON
         seraphim1@uk.dreamcast.com

THIS SONGS IS SOMEWHAT OF A DEPARTURE FOR
SERAPHIM, WITH A MUCH MORE TRADITIONAL
STYLE OF BASS PLAYING

WARNING! THIS TAB IS NOT FOR THE FAINT
           HEARTED.


NOTATION

r-REST/MUTE
h-HAMMERON
p-PULLOFF
/-SLIDE UP
\-SLIDE DOWN
»-TIE TO NEXT RIFF

RIFF A-INTRO LEADIN

 A------------
 E------------
 B-------5-3»--
F#-3h5-5------
 B------------

RIFF B-INTRO/VERSE 1

 A------------------------
 E------2--5------2-------
 B-3--5------3--5---------
F#------------------3--5--
 B------------------------

 A----------------------------
 E------2--5------------------
 B-3--5------3-3-3-3-3-3-3-3--
F#---------------------------
 B----------------------------

 A----------------------
 E----------------------
 B-5-5-5-5-5-5-3h5------
F#-----------------3h5--
 B----------------------

RIFF C- FIRST CHORUS (DISTORTION ON GUITAR)

 A-------------------------------------
 E-------------------------------------
 B------------------------------------- 1st
F#---------------0-0-0--0-2-3-5-3-3-2-- &     
 B-3-3-333-5/7\5----------------------- 3rd

 A------------------------------
 E------------------------------
 B------------------------------ 2nd
F#---------5/7\5-0-0-3-3-2-0-2-- measure
 B-3-3-333----------------------

 A---------------------------------
 E---------------------------------
 B--------------------------------- 4th
F#--------------------------------- measure
 B-3-3-3-3-3-3-3-3-5-5-5-5-5-5-5-5-

RIFF D-HEAVY PART

 A----------------------------
 E----------------------------
 B---------------------------- 1st & 3rd
F#---------------------------- measure
 B-3h5-5-3h5-5-3h5-5-6-6-6-6--

 A----------------------------
 E-----------------------------
 B----------------------------- 2nd measure
F#-----------------------------
 B-3h5-5-3h5-5-2-2-2-2-2-2-2-2--

 A------------------------------
 E------------------------------
 B------------------------------ 4th measure
F#---------------------1-0------
 B-3h5-5-3h5-5-2-3-5-0-----3-5--

RIFF E-SECOND VERSE

 A------------------------------
 E-----------------2------5---5-7-
 B-3-r-3r-3r-3---5------5---5-----
F#--------------------0-----------
 B-------------3------------------

 A--------------2h4p2----------------------
 E--------------------2-r-2-5-4-2-0---------
 B-3-r--3r-3r-3---------------------3-2-----
F#-------------------------------------3-5-
 B----3------------------------------------

 A------------------------------------
 E------------------2-r-2r-2r----------
 B-3-r-3r-3r-3----5-----------5-3-0-3»-
F#-------------------------------------
 B-------------3-----------------------

 A-------------------------------
 E---------------2-r-2r-2r-2------
 B-3-r-3r-3r-3--------------------
F#---------------------------3-3--
 B-------------3------------------

 A----------------------------------
 E-----------------2-r-2r-2r-2---5»--
 B-3-r-3r-3r-3---5-------------5-----
F#----------------------------------
 B-------------3--------------------

 A----------------------------------------
 E----------------------------------------
 B-;-3-3-3-3-3-3-3-5-5-5-5-5-5-3h5--------
F#---------------------------------3h5----
 B----------------------------------------

RIFF G- SECOND CHORUS

nb. MEASURE 1 & 3 ARE THE SAME AS THE FIRST
    CHORUS

 A------------------------------------
 E------------------------------------
 B----------------------7-5----------- 2nd
F#---------5/7\5-0-0-3------7-5-8-0-3-
 B-3-3-333----------------------------

 A-----------------------------------------
 E-----------------------------------------
 B----------------------------------3h5----
F#-----------------------------3h5---------
 B-3-3-3-3-3-3-3-3-5-5-5-5-5-5-------------

RIFF H- INTERLUDE

 A---------------------------
 E---------------------------
 B---------------------------  X3
F#---------------------------
 B-3h5-5-3h5-5-5h6-6-9-8-6-8-

 A------------------------------
 E------------------------------
 B------------------------------  X1
F#------------------------------
 B-3h5-5-3h5-5-6-6-5-5-3-3-0-0--

RIFF I- FIRST MEASURE OF HEAVY PART RIGHT
        AFTER INTERLUDE

 A----------------------------
 E-5h7-7-5h7-7-5h7-7----------- harmonizes
 B-----------------------------
F#-----------------------------
 B--------------------6-6-6-6--

RIFF J- LAST MEASURE OF 3rd HEAVY PART

 A-----------------------------------
 E-----------------------------------
 B-----------------------------------
F#---------------------1-0-1---------
 B-3h5-5-3h5-5-2-3-5-0-------5-3-----

OK, THERE IT IS, THE TAB FROM HELL!

     
Добавлено: 18.06.2013
Другие материалы по этой песне:
  • Аккорды и текст

Страница создана 18.06.2013
http://primanota.ru/seraphim/my-silver-town-chords.htm
Привет, Гость.
Предлагаем пройти революционный курс по гитаре.
Подарок от PrimaNota.Ru, забирай!