PrimaNota.ru - самый крупный в мире бесплатный архив песенных текстов, аккордов, табулатур и нот


Seraphim - Last Dance - бас-таба, видео

Регистрация Запомнить меня
Войти через:  Facebook Google Twitter Vk Yandex Mail.ru

Seraphim - Last Dance - бас-таба, видео

Печатать
Просмотров: 95
ARTIST     - SERAPHIM
SONG       - LAST DANCE
TABBED BY - NICK BILLINGTON
             seraphim1@uk.dreamcast.com

TUNING     - (B,F#,B,E,A)

NOTATION   

h- hammer on
p- pull off
/- slide up
\- slide down

INTRO

 A---------------------------------
 E---------------------------------
 B---------------------------------
F#-0-3/5-5--5\3-3--3-5--7-7h8p7-3--
 B---------------------------------

 A---------------------------------
 E---------------------------------
 B--------------------7-7h8p7------
F#-0-3/5-5--5\3--3-5----------3-0--
 B---------------------------------

 A--------------------------
 E--------------------------
 B-------------------7h8p7--
F#-0-3/5-5-5-555-7-8--------
 B--------------------------

 A-----------------
 E-----------------
 B------------5-3--
F#-3-3-3-333-------
 B-----------------

....THEN LEADING INTO DISTORTION

 A--------------------------------------
 E--------------------------------------
 B--------------------------------------
F#-0-3/5-5-5-555-55-7-8-3-3-3-3-3-3-3-3-
 B--------------------------------------

VERSE RIFF 1

 A------------------------------------
 E------------------------------------
 B------------------------------------
F#-5-555-555-55-7-8-3-333-333---------
 B-----------------------------6-5-3--

VERSE RIFF 2/PRE CHORUS
(hit the octave on the bar leading to 
the chorus)

 A----------------------------------------
 E----------------------------------------
 B----------------------------------------
F#----------------------------------------
 B-5-555-555-55-5h6h7h8-3-333-33-0-000-00-

VERSE 2- BASS SOLO PART

 A-------------------------
 E-------------------------
 B---------7-8-5-5-7-7-8-8-
F#-5-5-7-8-----------------
 B-------------------------

 A---------------------------
 E------------3-------3------
 B------5-3-5---5-3-5---5-5--
F#-3-3-----------------------
 B---------------------------

 A---------------------------------
 E---------------------------------
 B-----7-8-10-8-8-8-7--------------
F#-5-5----------------8-7-8/10-10--
 B---------------------------------

 A---------------------------
 E---------------------------
 B-----5--5--5-333-----------
F#-3-3--3--3-------0-3/5-5---
 B---------------------------

CHORUS

 A--------------------------------------
 E--------------------------------------
 B--------------------------------------
F#--------------------------------------
 B-0-000-000-000-00-3-333-33-/9-999-99--

VARIATION

 A-----------------------------------------
 E------------------------------------------
 B-----------------------------------------
F#-----------------------------------------
 B-0-000-000-000-00-3-333-33-9-99-9-12-13-12 
INTERLUDE

 A-----------------------------
 E-----------------------------
 B--------5-------2-5-5-3------
F#-5--5-6--6-5--3---------3----
 B-----------------------------

 A-----------------------
 E-----------------------
 B--------5-------2-5----
F#-5--5-6--6-5--3-----3--
 B-----------------------

 A-----------------------------
 E-----------------------------
 B--------5-------2-5-5-3------
F#-5--5-6--6-5--3---------3----
 B-----------------------------

 A-----------------------------
 E-----------------------------
 B--------5-5h6p5---3-2-5------
F#-5--5-6---------3----------3-
 B------------------------3-5--

 A-----------------------------
 E-----------------------------
 B--------5-------2-5-5-3------
F#-5--5-6--6-5--3---------3----
 B-----------------------------

 A-----------------------------
 E-----------------------------
 B----------------2/5-555555---
F#-5-555-7-8-3333--------------
 B-----------------------------

OK, THATS ALL FOLKS!

     
Добавлено: 10.11.2013
Другие материалы по этой песне:
  • Аккорды и текст

Страница создана 10.11.2013
http://primanota.ru/seraphim/last-dance-chords.htm
Привет, Гость.
Предлагаем пройти революционный курс по гитаре.
Подарок от PrimaNota.Ru, забирай!