PrimaNota.ru - самый крупный в мире бесплатный архив песенных текстов, аккордов, табулатур и нот


Seraphim - Halocaust - бас-таба, видео

Регистрация Запомнить меня
Войти через:  Facebook Google Twitter Vk Yandex Mail.ru

Seraphim - Halocaust - бас-таба, видео

Печатать
Просмотров: 100
Уроки эстрадного вокала в Санкт-Петербурге
ARTIST-SERAPHIM
SONG-HALOCAUST
TABBED BY-NICK BILLINGTON
            seraphim1@uk.dreamcast.com

OK, THIS IS ONE OF SERAPHIMS FASTER AND
MORE COMPLEX SONGS.

NOTATION

r-REST/MUTE
bb-HEAVY BEND THE BACK TO START POSITION
e-ENDING
\-SLIDE DOWN

RIFF A-INTRO

F#--------------------3--   1st,3rd,4th
 B-4-4-4-4-r-4-4-4-4-r----   measure

F#--------------------3bb--
 B-4-4-4-4-r-4-4-4-4-r-----  2nd measure

RIFF B-MAIN 

 B------5-4-4-0---0-3-3----
F#----3---------4----------
 B-4-4---------------------

RIFF C-FIRST HALF OF VERSE

 B-------5-4-4-0---0-3-0------- 
F#-----3---------4-------4-0--- 
 B-4-4------------------------- 

RIFF D-SECOND HALF OF VERSE

                                       1e      2e
 B---------------------------|------|-5---3-
F#--------------------------|-3-5-4-|---3---
 B-4-4-4-4-4-4-4-4-4-4-4-4-4-|------|-------

RIFF D OUTRO-PRE CHORUS LEADIN'

 B------
F#------
 B-5-4--

RIFF E-FIRST HALF OF PRE CHORUS

F#-----------------------
 B-4-4-3-5-4-4-3-5-4-3-5-

RIFF F-SECOND HALF OF PRE CHORUS

F#------------------------
 B-2-2-0-3-2-2-0-3-2-0-3--

RIFF F LEAD OUT

F#-1-1-0-0--
 B----------

RIFF G-CHORUS

F#-1-1-1-1-r-1-1-1-1-r-1-1-r-|------
 B-------------------------|-\16--

RIFF G-INTERLUDE

F#-----4-------5----5-------4-----
 B-4-7---7-4-7---3-6--6-3-6---6----

RIFF H-INTERLUDE CONTINUED

F#------------------------------0--
 B-4-4-4-44444-44-3-3-3-333-4-6----

THATS ALL FOLKS!

     
Добавлено: 06.07.2013
Другие материалы по этой песне:
  • Аккорды и текст

Страница создана 06.07.2013
http://primanota.ru/seraphim/halocaust-chords.htm
Привет, Гость.
Предлагаем пройти революционный курс по гитаре.
Подарок от PrimaNota.Ru, забирай!