PrimaNota.ru - самый крупный в мире бесплатный архив песенных текстов, аккордов, табулатур и нот


Seraphim - Grailcore - бас-таба

Регистрация Запомнить меня
Войти через:  Facebook Google Twitter Vk Yandex Mail.ru

Seraphim - Grailcore - бас-таба

Печатать
Просмотров: 69
ARTIST-SERAPHIM
SONG-GRAILCORE
TABBED BY-NICK BILLINGTON
         seraphim1@uk.dreamcast.com

THIS SONG IS DEAD EASY TO PLAY, BUT SOUNDS
VERY COOL. ONE OF SERAPHIMS MORE EXTREME
SONGS.

NOTATION

/-SLIDE UP
\-SLIDE DOWN
ph-PINCH HARMONIC

RIFF A
        ph     ph  ph
F#-----3-----3---3--  
 B-4-4---4-4---4----

        ph  ph
F#-----3---3--------
 B-4-4---4---2-5-2--

RIFF B

 E-----------6/7\6--------
 B-----7/9\7--------------
F#-4-2-------------7/9\2--    X2
 B------------------------

 E-----------6/7\6--9/11-----
 B-----7/9\7-----------------
F#-4-2-------------------\2--    X1
 B---------------------------

 E-----------6/7\6------------------
 B-----7/9\7------------------------
F#-4-2-------------7-7-5-5-4-4-2-2--   X1
 B----------------------------------


THE PINCH/ARTIFICIAL HARMONICS ON RIFF A
ARE NOT NECESSARY WHEN PLAYING THIS SONG
BUT THEY ARE PLAYED BY SERAPHIMS BASSIST.

OK, THATS ALL FOLKS

     
Добавлено: 19.07.2013
Другие материалы по этой песне:
  • Аккорды и текст

Страница создана 19.07.2013
http://primanota.ru/seraphim/grailcore-chords.htm
Привет, Гость.
Предлагаем пройти революционный курс по гитаре.
Подарок от PrimaNota.Ru, забирай!