PrimaNota.ru - самый крупный в мире бесплатный архив песенных текстов, аккордов, табулатур и нот


Seraphim - Echoblast - бас-таба, видео

Регистрация Запомнить меня
Войти через:  Facebook Google Twitter Vk Yandex Mail.ru

Seraphim - Echoblast - бас-таба, видео

Печатать
Просмотров: 76
ARTIST- SERAPHIM
SONG  - ECHOBLAST
TABBED BY- Nick Billington
             seraphim1@uk.dreamcast.com

TUNING (B,F#,B,E,A)

NOTATION

\- SLIDE DOWN
e-ENDING
trem__-TREMELO PICK

VERSE/CHORUS 

                   1,2,3e   4e
F#--3----------|-----|--6--|
 B----------5--|--1--|-----|

PRE CHORUS


 B--------------------5-5-5--
F#--5--6----8\--3-6-3--------   1st&3rd 
 B-5--5--8-8---4-------------    measure

 B------------------------3----
F#--5--6-----8\---3-6-3-----6--  2nd
 B-5--5--8-8-----4------5------

 B----------------------5-3----
F#--5--6-----8/---3-6-3-----6--  4th
 B-5--5--8-8----4--------------

VERSE 3

 B---------------
F#-3-r-3r3r-3----   X2
 B-------------1-

 B----------------1-
F#-3-r-3r3r-3-1h3---
 B------------------

 B------1-1-1-1-1-----------
F#-3--3----------3-3-3-3-3-
 B-------------------------
          trem_________________

INTERLUDE

F#------------------------
 B-3-33333-33333-333-1-4--

F#-------------------2----
 B-3-33333-33333-333---4--

BRIDGE

F#-------------
 B--6---8---8--

THATS ALL FOLKS!

     
Добавлено: 09.09.2013
Другие материалы по этой песне:
  • Аккорды и текст

Страница создана 09.09.2013
http://primanota.ru/seraphim/echoblast-chords.htm
Привет, Гость.
Предлагаем пройти революционный курс по гитаре.
Подарок от PrimaNota.Ru, забирай!