PrimaNota.ru - самый крупный в мире бесплатный архив песенных текстов, аккордов, табулатур и нот


Seraphim - Coaxed On A Rope - бас-таба

Регистрация Запомнить меня
Войти через:  Facebook Google Twitter Vk Yandex Mail.ru

Seraphim - Coaxed On A Rope - бас-таба

Печатать
Просмотров: 67
ARTIST- SERAPHIM
SONGm COAXED ON A ROPE
TABBED BY- NICK BILLINGTON

ONE OF BRITAINS UP AND COMING METAL BANDS
WHO HAVE RECENTLY RELEASED THEIR DEBUT EP.
FOR FURTHER INFORMATION CONTACT-
www.strappingyounglad@uk.dreamcast.com

GUITARS TUNED IN DROP B (B,F#,B,E)

RIFF A

------------------
------------------
-0-0-0-3-2-0------   X3
-------------2-3-5

------------------------
-----------------2-0-3--
-0-0-0-3-2-0-2-3-------2   X1
------------------------

RIFF B- PRE-CHORUS

-----------5-353-----------------------
-------------------4-4-444--1-1-1111----
-3-3-3333----------------------------1/  X1
---------------------------------------

---------------5-353-------------------
---------------------4-4-444-1-1-1111---
-3-3-3/1-1/4-3-----------------------1/  X2
---------------------------------------

RIFF C- CHORUS

----------------------------------
----------------------------------
-0-0-00-03-3-3-33-3---------------
-------------------4-4-44-41-1-1-11

RIFF D- PROGRESSION

-----------------------------
-----------------------------
-0---------------0----------3
--------5--------------------

RIFF E

---------
---------
---------
-5H7--7H8

RIFF F

---------
-5H7--7H8
---------
---------

RIFF G- OUTRO

--------------
--------------
-0------------
----4-5-1--1111

     
Добавлено: 02.10.2013
Другие материалы по этой песне:
  • Аккорды и текст

Страница создана 11.08.2013
http://primanota.ru/seraphim/coaxed-on-a-rope-chords.htm
Привет, Гость.
Предлагаем пройти революционный курс по гитаре.
Подарок от PrimaNota.Ru, забирай!