PrimaNota.ru - самый крупный в мире бесплатный архив песенных текстов, аккордов, табулатур и нот


Seraphim - Chinese Food Mind Games - бас-таба, видео

Регистрация Запомнить меня
Войти через:  Facebook Google Twitter Vk Yandex Mail.ru

Seraphim - Chinese Food Mind Games - бас-таба, видео

Печатать
Просмотров: 67
ARTIST     - SERAPHIM
SONG       - CHINESE FOOD MIND GAMES
TABBED BY - NICK BILLINGTON
               seraphim1@uk.dreamcast.com

TUNING - (B,F#,B,E,A)

NOTATION

h- hammer on
p- pull off
/- slide up
\- slide down
r- rest/mute

INTRO

 A-----------
 E-----------
 B-----------
F#------0----
 B-3---------

RIFF 1

 A------------------
 E------------------
 B------------------
F#-----------1-4----
 B-0-0-0-3-3-----2--

VERSE LEADIN

 A--------------------------
 E--------------------------
 B--------------------------
F#--------------------------
 B-0r-0r-0r-0r-0r-0r-0r-0-0--

VERSE

 A-----------------
 E-----------------
 B-----------------
F#-----------------
 B-0-0-0-3-3-2-5-2-

CHORUS

 A---------------------------------
 E---------------------------------
 B---------------------------------
F#-5------0-------1----------0-----
 B------------------------3--------

INTERLUDE

 A-----------------------------
 E-----------------------------
 B-----------------------------
F#-555r-555r-555r-777r-777r-777-
 B-----------------------------

 A-------------------------------
 E-------------------------------
 B-------------------------------
F#-888r-888r-888r-444r-444r-444r--
 B-------------------------------

....THEN,

 A--------------------------
 E--------------------------
 B--------------------------
F#--------------------------
 B-000r-000r-000r-222r-222r--

 A------------------------------
 E------------------------------
 B------------------------------
F#---------------444r-444r-444r-
 B-333r-333r-333r---------------

INTERLUDE 2

 A---------------
 E---------------
 B---------------
F#---------------
 B-0-0-3h2-0r-02r-

 A------------------
 E------------------
 B------------------
F#------------------
 B-0-0-3-0-2-0-2-3--

CHORUS 2

 A-------------------------------------
 E-------------------------------------
 B-------------------------------------
F#-55555555-00000000-11111111------0000-
 B---------------------------3333------

CHORUS 3

 A-----------------------------
 E-----------------------------
 B-----------------------------
F#-5-55--0-00--1-11----0-3-5-3-
 B------------------3-3--------

OK, THATS ALL FOLKS!

     
Добавлено: 12.09.2013
Другие материалы по этой песне:
  • Аккорды и текст

Страница создана 12.09.2013
http://primanota.ru/seraphim/chinese-food-mind-games-chords.htm
Привет, Гость.
Предлагаем пройти революционный курс по гитаре.
Подарок от PrimaNota.Ru, забирай!