PrimaNota.ru - самый крупный в мире бесплатный архив песенных текстов, аккордов, табулатур и нот


Seraphim - Charlie - бас-таба, видео

Регистрация Запомнить меня
Войти через:  Facebook Google Twitter Vk Yandex Mail.ru

Seraphim - Charlie - бас-таба, видео

Печатать
Просмотров: 83
ARTIST-SERAPHIM
SONG-CHARLIE
       TAKEN FROM THE SELF TITLED DEBUT EP.
TABBED BY-NICK BILLINGTON
             seraphim1@uk.dreamcast.com

TUNING (B,F#,B,E,A)

NOTATION

/-SLIDE UP
r-REST/MUTE
~-VIBRATO

MAIN RIFF

F#--------0--------------0--------
 B-1-1-3-4--4-3-1-r-1-3-4--4-3~----

F#--------0--------------0---------|
 B-1-1-3-4--4-3-1-r-1-3-4---0-4-3---|

CHORUS

 B------------------------------------------
F#----------------0-0-0-0-0-0-0-0-3-3-3-3/15 
 B-6-6-6-6-6-6-6-6--------------------------

F#-----------------|
 B--4-4-4-5-6-5-4--|

INTERLUDE

F#-----------------------------------
 B-1-1r-1-1-1r-2-2r-2-2-2r-4-4r-4-4-4--

F#-4-4r-4-4-4r-6--| 
 B----------------|

THE ABOVE PATTERN REMAINS THE SAME BUT
THE RHYTHM CHANGES.

BRIDGE- FOR THE RHYTHM CHECK THE CD.

F#----
 B--4-

THATS ALL FOLKS!

     
Добавлено: 27.06.2013
Другие материалы по этой песне:
  • Аккорды и текст

Страница создана 27.06.2013
http://primanota.ru/seraphim/charlie-chords.htm
Привет, Гость.
Предлагаем пройти революционный курс по гитаре.
Подарок от PrimaNota.Ru, забирай!