PrimaNota.ru - самый крупный в мире бесплатный архив песенных текстов, аккордов, табулатур и нот


Seraphim - An Unnecessary Emotion - бас-таба, видео

Регистрация Запомнить меня
Войти через:  Facebook Google Twitter Vk Yandex Mail.ru

Seraphim - An Unnecessary Emotion - бас-таба, видео

Печатать
Просмотров: 73
Уроки эстрадного вокала в Санкт-Петербурге
ARTIST-SERAPHIM
SONG-AN UNNECESSARY EMOTION
TABBED BY-NICK BILLINGTON
             seraphim1@uk.dreamcast.com

TUNING (B,F#,B,E,A)

NOTATION

e-ENDING
r-REST/MUTE

MAIN RIFF

F#-----------------------
 B-0--3--2--1-2-1-2-1-0-r-

nb. WHEN THE MAIN RIFF IS USED AS A 
PRE-CHORUS, THE REST IS REMOVED.

CHORUS PT1

 B-----5---------6------------------
F#-3-3--3-3------------5-5-8-5-5-6--
 B-----------6-6---6-6--------------

       1e
 B------------
F#-8-6-5-3-1--
 B------------

          2e
 B-8-6-5-------
F#-------8--6--
 B-------------

CHORUS PT2

F#-3-3-3-3-3-3-3-3------------------
 B-----------------6-6-6-6-6-6-6-5--
 
 B--------------------------1-0---
F#-8-8-8-8-8-8-8-8-1-1-1-1-1----1--
 B--------------------------------

INTERLUDE

F#-3-|-5-5-5-5-5-5-5-5-----------------
 B---|-----------------8-8-8-8-8-8-8-7-

F#-10-10-10-10-10-10-10-10-3-3-3-3-3-3-3-3
 B---------------------------------------

THATS ALL FOLKS!

     
Добавлено: 05.08.2013
Другие материалы по этой песне:
  • Аккорды и текст

Страница создана 05.08.2013
http://primanota.ru/seraphim/an-unnecessary-emotion-chords.htm
Привет, Гость.
Предлагаем пройти революционный курс по гитаре.
Подарок от PrimaNota.Ru, забирай!