PrimaNota.ru - самый крупный в мире бесплатный архив песенных текстов, аккордов, табулатур и нот


Serafin - Numerical - таба, видео

Регистрация Запомнить меня
Войти через:  Facebook Google Twitter Vk Yandex Mail.ru

Serafin - Numerical - таба, видео

Печатать
Просмотров: 70


-------------------------------------------------------------------------------
			     Numerical - Serafin
-------------------------------------------------------------------------------
Tabbed by:Sam Jackson
Email:samj800@hotmail.com

Tuning:Standard

e|------------------------|-------------------------------|
B|------------------------|-------------------------------|
G|-------5-5--------------|-------------------5-5-3-------|
D|-5-5-5-5-5-7-7-7--(555)-|-----5-5-5-7-7-5-5-5-5-3-------|
A|-5-5-5-3-3-7-7-7--(555)-|-----5-5-5-7-7-5-5-3-3-1-------|
E|-3-3-3-----5-5-3--(333)-|-----3-3-3-5-5-3-3-------------|

Give me am email if you like Serafin.
it would be nice to hear from a fellow fan of the band :)

Добавлено: 03.11.2013
Другие материалы по этой песне:
  • Аккорды и текст

Страница создана 03.11.2013
http://primanota.ru/serafin/numerical-chords.htm
Привет, Гость.
Предлагаем пройти революционный курс по гитаре.
Подарок от PrimaNota.Ru, забирай!