PrimaNota.ru - самый крупный в мире бесплатный архив песенных текстов, аккордов, табулатур и нот


Sepultura - Nomad - текст песни, таба, бас-таба, видео

Регистрация Запомнить меня
Войти через:  Facebook Google Twitter Vk Yandex Mail.ru

Sepultura - Nomad - текст песни, таба, бас-таба, видео

Печатать
Просмотров: 167
TUNNING: D, G, C, F, A, D,

|-------|------||-------------|-------------|------------------------||
|-------|------||-------------|-------------|------------------------||
|-0---0-|------||-------------|-----------5-|------------------------||
|-------|------||----2------2-|---------2-5-|---------2--------------||
|-------|-4--4-||-4---3--4---3|-4-4-4-4---3-|-4-4-4-4---3--4-4-------||
|-------|-2--2-||-2------2----|-2-2-2-2-----|-2-2-2-2------2-2-0-2-3-||

|------|---------|---------|-------------||
|------|-11-(11)-|-12-(12)-|-12--12-(12)-||
|------|-13-(13)-|-14-(14)-|-14--14-(14)-||
|----3-|---------|---------|-------------||
|-2--1-|---------|---------|-------------||
|-0----|---------|---------|-------------||

|---------------------------||
|---------------------------||
|---------------------------||
|---------------------------||
|-2-2-2--2--2-2-2--2--2-2-2-||
|-0-0-0--0--0-0-0--0--0-0-0-||
  . . .  .  . . .  .  . . .

CHORUS
|--------------------||
|--------------------||
|--------------------||
|--------------------||
|-3-2---3-2--2-3-2/6-||
|-1-0---1-0--0-1-0/4-||

|----------|-----------|-------------|
|-------8--|-----------|-------------|
|------10--|-----------|-------------|
|----------|-----------|-------------|
|----------|-3-2---3-2-|------8--8-8-|
|1-0-------|-1-0---1-0-|-1-0---------|
  P                       P

|-----------------------------|--------------------------------||
|-----------------------------|--------------------------------||
|-----------------------------|--------------------------------||
|-------8-------8-------8-9-9-|--------------------------------||
|-------6-------6-------6-7-7-|-------8--------8--------8--5-5-||
|-0-0-0---0-0-0---0-0-0-------|-0-0-0-6--0-0-0-6--0-0-0-6--3-3-||
  . . .   . . .   . . .         . . .    . . .    . . .

|---------------------------------||
|---------------------------------||
|---------------------------------||
|---------------------------------||
|-------8--------8--------8-5-5-5-||
|-0-0-0-6--0-0-0-6--0-0-0-6-3-3-3-||
  . . .    . . .    . . .

|----------------------|--------------||
|----------------------|--------------||
|----------------------|--------------||
|----------------------|--------------||
|----------------------|---4-4----3-3-||
|-0-0-0-0--0-0-0-1-1-5-|-2-2-2--1-1-1-||
  . . . .  . . . . . .

(MY BELIEF HAVE NO MORE TALE)
|------------------------|
|------------------------|
|----------------4/------|
|------------------------|
|----------------2/------|
|------------------------|

|--------------|-------------------|
|--------------|-------------------|
|--------------|-/9--10------13-14-|
|--------------|-------------------|
|-2--3----6--7-|-/7--8---8/--11-12-|
|-0--1----4--5-|-------------------|

 solo 
|-----------------------------------------0-0-|
|-----------------------------------------0-0-|
|-11"--12"---11"-12"--11"--9"--12"--11"-------|
|---------------------------------------------|
|-9"---10"---9"--10"--9"---7"--10"--9"--------|
|---------------------------------------------|
|
|--------------------------------------------------|
|-4-4-4-4-4-4-4-4-----H-P--------------------------|
|-4-4-4-4-4-4-4-4-5--4-5-4/2--4--2-4-2-------------|
|---------------------------------H-P--4--2-4-2-1--|
|------------------------------------------H-P-----|
|--------------------------------------------------|
|
|-----------------------------------------------|
|-----------------------------------------------|
|-----------------------------------------2/16--|
|-2--1-2-1--------------------------------------|
|-----H-P--3-2-0-2-3-2-0------------------------|
|-------------------P-P--2-3--2-3-2-0-2---------|
|                              H P P
|
|--------------------------------------------------|
|-------------h----h-------------------------------|
|-15-16-15--11-12-9-11-----------------------------|
|---H--P --------------9-11-8-9--8-9-8-9-----------|
|-----------------------H----H----H-P-H--9-10-7-9--|
|-----------------------------------------H----H---|
|
|-----------------------------------------------|
|-----------------------------------------------|
|-----------------------------------------------|
|-----------------------------------------------|
|--H----H-P---H----P-P---H----H-P-P----H-P-H-P--|
|-6-7--6-7-6-0-2--3-2-0-0-3--2-3-2-0--2-3-2-3-2-|
|
|--------H--P----------------------H--P----------------------|
|-/12--11-12-11---H----11-12/-17-15-17-15/14-14-15/19--------|
|---------------11-12----H----------------------------19/16--|
|------------------------------------------------------------|
|------------------------------------------------------------|
|------------------------------------------------------------|
|
|-----------------------------------------------|
|-----------------------------------------------|
|-----------------------------------------------|
|-----------------------------------------------|
|--H----H-P---H----P-P---H----H-P-P----H-P-H-P--|
|-6-7--6-7-6-0-2--3-2-0-0-3--2-3-2-0--2-3-2-3-2-|
|
|-----------------------------------------------------|
|-------H--P----H------11-------H--P------------------|
|-/12-11-12-11-9-11-12----/18-16-18-16/15--16-16/12---|
|-----------------------------------------------------|
|-----------------------------------------------------|
|-----------------------------------------------------|
|
|--17/18--15-19-15----------------------------------------------|--------------|
|-----------H--P----17-14---------------------------------------|--------------|
|-------------------------15-12---------------------------------|--------------|
|-------------------------------14/11---------------------------|--------------|
|-------------------------------------13-10--------------P-P----|--2--3--------|
|-------------------------------------------12--9/3--2--3-2-0---|--0--1---1/13-|
|
|--12/15--12-15-12-----------------------------------------|
|-----------H--P---14-11-----------------------------------|
|------------------------12/9------------------------------|
|-----------------------------11-8-------------------------|
|----------------------------------10-7-------------P-P----|
|---------------------------------------9-6/3--2---3-2-0---|

 SOLO RIFF
|-----------------------------|
|-----------------------------|
|-----------------------------|
|-5--------5-------P----------|
|-3-4-4-4--3-4-4--3-2--P------|
|---2-2-2----2-2------3-0-----|
    . . .    . .              

|------------------------------------------------------------------------------|
|------------------------------------------------------------------------------|
|------------------------------------------------------------------------------|
|------------------------------------------------------------------------------|
|------------------------------3-0--/5----4-----------------4------------------|
|-0-0-0-0-0-0-0-0-0-0-0-0-0-0--1-0--/4----2-3-3-3-3-3-3-3-3-2--3-3-3-3-3-3-3-3-|
| . . . . . . . . . . . . . .               . . . . . . . .    . . . . . . . . 
|
|-----------------------------------------------|
|-----------------------------------------------|
|-----------------------------------------------|
|-----------------------------------------------|
|--------------------------------------------4--|
|-3-3-3-3-3-3-3-3-3-3-3-3-3-3-3-3-3-3-3-3-3--2--|
  . . . . . . . . . . . . . . . . . . . .
Добавлено: 15.05.2012
Другие материалы по этой песне:

Страница создана 20.03.2012
http://primanota.ru/sepultura/nomad-chords.htm
Привет, Гость.
Предлагаем пройти революционный курс по гитаре.
Подарок от PrimaNota.Ru, забирай!