PrimaNota.ru - самый крупный в мире бесплатный архив песенных текстов, аккордов, табулатур и нот


Sepultura - Fighting On - текст песни, таба, видео

Регистрация Запомнить меня
Войти через:  Facebook Google Twitter Vk Yandex Mail.ru

Sepultura - Fighting On - текст песни, таба, видео

Печатать
Просмотров: 87
-------------------------------------------------------------------------------
                             FIGHTING ON - Sepultura
                         (From the 2006 Album DANTE XXI)
-------------------------------------------------------------------------------

Words by Derrick Green
Music by Igor Cavalera, Derrick Green & Andreas Kisser

Transcribed by BaronLundi

Tuning: Bb Eb Ab Db F Bb

Q=120
4/4

    E E E Q  E E E   E E E E  E E E E   E E E Q  E E E   E E E E  E E E E
||-----------------|------------------|----------------|-------------------||
||o----------------|------------------|----------------|------------------o||
||----2---2------2-|-----0--------0---|---2---2------2-|-----0--------0----||
||------5------5---|---3---3----6---6-|-----5------5---|---3---3----6---6--||
||o-0--------0-----|-1-------/4-------|-0--------0-----|-1-------/4-------o||
||-----------------|------------------|----------------|-------------------||


Q=140

                            ~      PM----------------------------|
    |----------3----------|
    S S S S S S S S S S S S H      S S S S S S S S S S S S S S S S
||-------------------------------|----------------------------------|
||o------------------------------|----------------------------------|
||-------------------------------|----------------------------------|
||-------------------------------|----------------------------------|
||o------------------------------|----------------------------------|
||--5h6p5h6p5h6p5h6p5h6p5h6-5----|-0-0-0-0-0-0-0-0-0-0-0-0-0-0-0-0--|


                          ~
  |----------3----------|
  S S S S S S S S S S S S H      Q  Q  Q  Q   4x
|------------------------------|--------------||
|------------------------------|-------------o||
|------------------------------|--------------||
|------------------------------|--------------||
|------------------------------|-6--6--6--6--o||
|-5h6p5h6p5h6p5h6p5h6p5h6-5----|-4--4--4--4---||


    E E E E E E E  E   E E E E E  E  E  E  6x
||-------------------|---------------------||
||o------------------|--------------------o||
||--5-5-5-5-5-5-5----|---------------------||
||--7-7-7-7-7-7-7----|---------------------||
||o-0-0-0-0-0-0-0-10S|=8-8-8-8-8S10-10-10-o||
||-----------------8S|=6-6-6-6-6S=8--8--8--||


     PM-----------------------------------------|
     E  E  E  E  E E  E E    E  E  E  E  E E  E E
||------------------------|------------------------||
||o-----------------------|-----------------------o||
||------------------------|------------------------||
||------------------------|------------------------||
||o-12-11-10-11-10-9-10-9S|=12-11-10-11-10-9-10-9-o||
||--10--9--8--9--8-7--8-7S|=10--9--8--9--8-7--8-7--||


       E  E  E  E  E E  E E    E  E  E  E  E E  E E
|-||------------------------|------------------------||
|-||o-----------------------|-----------------------o||
|-||------------------------|------------------------||
|-||------------------------|------------------------||
|-||o-12-11-10-11-10-9-10-9S|=12-11-10-11-10-9-10-9-o||
|-||--10--9--8--9--8-7--8-7S|=10--9--8--9--8-7--8-7--||


                            ~      PM----------------------------|
    |----------3----------|
    S S S S S S S S S S S S H      S S S S S S S S S S S S S S S S
||-------------------------------|---------------------------------|
||o------------------------------|---------------------------------|
||-------------------------------|---------------------------------|
||-------------------------------|---------------------------------|
||o------------------------------|---------------------------------|
||--5h6p5h6p5h6p5h6p5h6p5h6-5----|-0-0-0-0-0-0-0-0-0-0-0-0-0-0-0-0-|


                          ~
  |----------3----------|
  S S S S S S S S S S S S H      Q  Q  Q  Q
|------------------------------|----------------||
|------------------------------|---------------o||
|------------------------------|----------------||
|------------------------------|----------------||
|------------------------------|-6--6--6--6----o||
|-5h6p5h6p5h6p5h6p5h6p5h6-5----|-4--4--4--4-----||


    E E E E E E E  E   E E E E E  E  E  E  6x
||-------------------|---------------------||
||o------------------|--------------------o||
||--5-5-5-5-5-5-5----|---------------------||
||--7-7-7-7-7-7-7----|---------------------||
||o-0-0-0-0-0-0-0-10S|=8-8-8-8-8S10-10-10-o||
||-----------------8S|=6-6-6-6-6S=8--8--8--||


     PM-----------------------------------------|
     E  E  E  E  E E  E E    E  E  E  E  E E  E E
||------------------------|------------------------||
||o-----------------------|-----------------------o||
||------------------------|------------------------||
||------------------------|------------------------||
||o-12-11-10-11-10-9-10-9S|=12-11-10-11-10-9-10-9-o||
||--10--9--8--9--8-7--8-7S|=10--9--8--9--8-7--8-7--||


       E  E  E  E  E E  E E    E  E  E  E  E E  E E
|-||------------------------|------------------------||
|-||o-----------------------|-----------------------o||
|-||------------------------|------------------------||
|-||------------------------|------------------------||
|-||o-12-11-10-11-10-9-10-9S|=12-11-10-11-10-9-10-9-o||
|-||--10--9--8--9--8-7--8-7S|=10--9--8--9--8-7--8-7--||


     Q   +E    Q   +E    Q     +E    Q   +E    E  E  E  E
||--------------------------|------------------------------||
||o-------------------------|-----------------------------o||
||--------------------------|------------------------------||
||--------------------------|------------------------------||
||o-13--(13)\-14--(14)\-14--|-(14)\-14--(14)\-14-14-14-14-o||
||--11--(11)\-12--(12)\-12--|-(12)\-12--(12)\-12-12-12-12--||


     Q   E  Q   E  Q     +E   Q   E  Q   E  E
||--------------------|-----------------------|
||o-------------------|-----------------------|
||--------------------|-----------------------|
||--10--10-11--11-10--|-(10)-10--10-10--10-10-|
||o-------------------|-----------------------|
||---8---8--9---9--8--|--(8)--8---8--8---8--8-|


   Q   E  Q   E  Q     +E   Q   E  Q   E  E   4x
|-------------------|-------------------------||
|-------------------|------------------------o||
|-------------------|-------------------------||
|-10--10-11--11-13--|-(13)-14--14-13--13-13---||
|-------------------|------------------------o||
|--8---8--9---9-11--|-(11)-12--12-11--11-11---||


     Q   +E    Q   +E    Q     +E    Q   +E    E  E  E  E  4x
||--------------------------|------------------------------||
||o-------------------------|-----------------------------o||
||--------------------------|------------------------------||
||--------------------------|------------------------------||
||o-13--(13)\-14--(14)\-14--|-(14)\-14--(14)\-14-14-14-14-o||
||--11--(11)\-12--(12)\-12--|-(12)\-12--(12)\-12-12-12-12--||


     E  E  E  E  E E  E E    E  E  E  E  E E  E E   8x
||------------------------|-------------------------||
||o-----------------------|------------------------o||
||------------------------|-------------------------||
||------------------------|-------------------------||
||o-12-11-10-11-10-9-10-9S|=12-11-10-11-10-9-10-9/-o||
||--10--9--8--9--8-7--8-7S|=10--9--8--9--8-7--8-7/--||


                            ~      PM----------------------------|
    |----------3----------|
    S S S S S S S S S S S S H      S S S S S S S S S S S S S S S S
||-------------------------------|---------------------------------|
||o------------------------------|---------------------------------|
||-------------------------------|---------------------------------|
||-------------------------------|---------------------------------|
||o------------------------------|---------------------------------|
||--5h6p5h6p5h6p5h6p5h6p5h6-5----|-0-0-0-0-0-0-0-0-0-0-0-0-0-0-0-0-|


                          ~
  |----------3----------|
  S S S S S S S S S S S S H      Q  Q  Q  Q
|------------------------------|----------------||
|------------------------------|---------------o||
|------------------------------|----------------||
|------------------------------|----------------||
|------------------------------|-6--6--6--6----o||
|-5h6p5h6p5h6p5h6p5h6p5h6-5----|-4--4--4--4-----||


     PM----------|                 PM-----|
     H    a Q.   E   +W            H    a H      +W      7x
||-----------------|------------|--------------|---------||
||o----------------|------------|--------------|--------o||
||-----------------|------------|--------------|---------||
||-----------------|------------|--------------|---------||
||o-/6----6S5----2-|-(2)--------|-/6----6S5----|-(5)----o||
||--/4----4S3----0-|-(0)--------|-/4----4S3----|-(3)-----||


   PM----------|                 PM---|
   H    a Q.   E   +W            H    H      +W
|----------------|------------|------------|--------*|
|----------------|------------|------------|--------*|
|----------------|------------|------------|--------*|
|----------------|------------|------------|--------*|
|-/6----6S5----2-|-(2)--------|-/6----2----|-(2)----*|
|-/4----4S3----0-|-(0)--------|-/4----0----|-(0)----*|


Duration Legend
---------------
W - whole; H - half; Q - quarter; E - 8th; S - 16th; T - 32nd; X - 64th; a - acciaccatura
+ - note tied to previous; . - note dotted; .. - note double dotted

Tablature Legend
----------------
 h   - hammer-on
 p   - pull-off
 b   - bend
 pb  - pre-bend
 r   - bend release (if no number after the r, then release immediately)
 /\  - slide into or out of (from/to "nowhere")
 s   - legato slide
 S   - shift slide
  - natural harmonic
[n]  - artificial harmonic
n(n) - tapped harmonic
 ~   - vibrato
 tr  - trill
 T   - tap
 TP  - trem. picking
 PM  - palm muting
\n/  - tremolo bar dip; n = amount to dip
 \n  - tremolo bar down
 n/  - tremolo bar up
/n\  - tremolo bar inverted dip
 =   - hold bend; also acts as connecting device for hammers/pulls
 <>  - volume swell (louder/softer)
 x   - on rhythm slash represents muted slash
 o   - on rhythm slash represents single note slash

Misc Legend
-----------
 |  - bar
||  - double bar
||o - repeat start
o|| - repeat end
*|  - double bar (ending)
 :  - bar (freetime)
 $  - Segno
 &  - Coda
Tempo markers -  = BPM(8/16=s8/s16), where s8 = swing 8ths, s16 = swing 16ths
Добавлено: 09.09.2013
Другие материалы по этой песне:

Страница создана 06.07.2012
http://primanota.ru/sepultura/fighting-on-chords.htm
Привет, Гость.
Предлагаем пройти революционный курс по гитаре.
Подарок от PrimaNota.Ru, забирай!