PrimaNota.ru - самый крупный в мире бесплатный архив песенных текстов, аккордов, табулатур и нот


Sepultura - Dark Wood Of Error - таба, бас-таба, видео

Регистрация Запомнить меня
Войти через:  Facebook Google Twitter Vk Yandex Mail.ru

Sepultura - Dark Wood Of Error - таба, бас-таба, видео

Печатать
Просмотров: 129
As recorded by Sepultura
(From the 2006 Album DANTE XXI)

Transcribed by Ben Price
	

Words by Andreas Kisser Music by Andreas Kisser, Igor Cavalera

Gtr I (D G C F A D) - 'Untitled'
Gtr II (D G C F A D) - 'Untitled'

    Q=205
   4/4
    Gtrs I, II
    PM--------------------------------------------------|
    S S S S E S S S S E S S S S   E S S S S E S S E S S E  4x
||------------------------------|--------------------------||
||o-----------------------------|-------------------------o||
||------------------------------|--------------------------||
||------------------------------|--------------------------||
||o-----------------------------|-------------------------o||
||--0-0-0-0-0-0-0-0-0-0-0-0-0-0-|-0-0-0-0-0-0-0-0-0-0-0-0--||


    PM--------------------------------------------------------------|
    S S S S S S S S S S S S S S S S   S S S S S S S S S S S S S S S S   4x
||----------------------------------|-----------------------------------||
||o---------------------------------|----------------------------------o||
||----------------------------------|-----------------------------------||
||----------------------------------|-----------------------------------||
||o---------------------------------|----------------------------------o||
||--6-6-6-6-0-0-6-6-6-6-0-0-6-6-6-6-|-0-0-6-6-6-6-0-0-6-6-0-0-6-6-0-0---||


   4/4
    PM--------------------------------------------------|
    S S S S E S S S S E S S S S   E S S S S E S S E S S E  4x
||------------------------------|--------------------------||
||o-----------------------------|-------------------------o||
||------------------------------|--------------------------||
||------------------------------|--------------------------||
||o-----------------------------|-------------------------o||
||--0-0-0-0-0-0-0-0-0-0-0-0-0-0-|-0-0-0-0-0-0-0-0-0-0-0-0--||


    PM--------------------------------------------------------------|
    S S S S S S S S S S S S S S S S   S S S S S S S S S S S S S S S S   4x
||----------------------------------|-----------------------------------||
||o---------------------------------|----------------------------------o||
||----------------------------------|-----------------------------------||
||----------------------------------|-----------------------------------||
||o---------------------------------|----------------------------------o||
||--6-6-6-6-0-0-6-6-6-6-0-0-6-6-6-6-|-0-0-6-6-6-6-0-0-6-6-0-0-6-6-0-0---||


   6/4
    PM----|      PM----|
    S S S S E Q  S S S S E Q  Q   4x
||--------------------------------||
||o------------------------------o||
||--------------------------------||
||--------------------------------||
||o---------6-6----------6-6--6--o||
||--0-0-0-0-4-4--0-0-0-0-4-4--4---||


   4/4
       PM--------------------|      PM--------------------|
    Q  S S S S S S S S S S S S   Q  S S S S S S S S S S S S   4x
||-----------------------------|------------------------------||
||o----------------------------|-----------------------------o||
||-----------------------------|------------------------------||
||-----------------------------|------------------------------||
||o-2--------------------------|-2---------------------------o||
||--0--0-0-0-0-0-0-0-0-0-0-0-0-|-0--0-0-0-0-0-0-0-0-0-0-0-0---||


    PM--------------------------------------------------------------|
    S S S S S S S S S S S S S S S S   S S S S S S S S S S S S S S S S
||----------------------------------|-----------------------------------||
||o---------------------------------|----------------------------------o||
||----------------------------------|-----------------------------------||
||----------------------------------|-----------------------------------||
||o---------------------------------|----------------------------------o||
||--4-4-3-3-3-3-3-3-4-4-3-3-3-3-3-3-|-5-5-4-4-4-4-4-4-5-5-4-4-4-4-4-4---||


    Gtr I
    S S S S S S S S S S S S S S S S   S S S S S S S S S S S S S S S S
||----------------------------------|-----------------------------------||
||o---------------------------------|----------------------------------o||
||----------------------------------|-----------------------------------||
||--6-6-5-5-5-5-5-5-6-6-5-5-5-5-5-5-|-7-7-6-6-6-6-6-6-7-7-6-6-6-6-6-6---||
||o---------------------------------|----------------------------------o||
||----------------------------------|-----------------------------------||
|
|   Gtr II
|   S S S S S S S S S S S S S S S S   S S S S S S S S S S S S S S S S
||----------------------------------|-----------------------------------||
||o---------------------------------|----------------------------------o||
||----------------------------------|-----------------------------------||
||----------------------------------|-----------------------------------||
||o---------------------------------|----------------------------------o||
||--4-4-3-3-3-3-3-3-4-4-3-3-3-3-3-3-|-5-5-4-4-4-4-4-4-5-5-4-4-4-4-4-4---||


   4/4
    Gtrs I, II
       PM--------------------|      PM--------------------|
    Q  S S S S S S S S S S S S   Q  S S S S S S S S S S S S   4x
||-----------------------------|------------------------------||
||o----------------------------|-----------------------------o||
||-----------------------------|------------------------------||
||-----------------------------|------------------------------||
||o-2--------------------------|-2---------------------------o||
||--0--0-0-0-0-0-0-0-0-0-0-0-0-|-0--0-0-0-0-0-0-0-0-0-0-0-0---||


    PM--------------------------------------------------------------|
    S S S S S S S S S S S S S S S S   S S S S S S S S S S S S S S S S
||----------------------------------|-----------------------------------||
||o---------------------------------|----------------------------------o||
||----------------------------------|-----------------------------------||
||----------------------------------|-----------------------------------||
||o---------------------------------|----------------------------------o||
||--4-4-3-3-3-3-3-3-4-4-3-3-3-3-3-3-|-5-5-4-4-4-4-4-4-5-5-4-4-4-4-4-4---||


    Gtr I
    S S S S S S S S S S S S S S S S   S S S S S S S S S S S S S S S S
||----------------------------------|-----------------------------------||
||o---------------------------------|----------------------------------o||
||----------------------------------|-----------------------------------||
||--6-6-5-5-5-5-5-5-6-6-5-5-5-5-5-5-|-7-7-6-6-6-6-6-6-7-7-6-6-6-6-6-6---||
||o---------------------------------|----------------------------------o||
||----------------------------------|-----------------------------------||
|
|   Gtr II
|   S S S S S S S S S S S S S S S S   S S S S S S S S S S S S S S S S
||----------------------------------|-----------------------------------||
||o---------------------------------|----------------------------------o||
||----------------------------------|-----------------------------------||
||----------------------------------|-----------------------------------||
||o---------------------------------|----------------------------------o||
||--4-4-3-3-3-3-3-3-4-4-3-3-3-3-3-3-|-5-5-4-4-4-4-4-4-5-5-4-4-4-4-4-4---||


  Q  H.        Q  H.          Q       H.                         4x
|------------|------------||-------------------------------------||
|------------|------------||o-----------------------------------o||
|------------|------------||-------------------------------------||
|------------|------------||-------------------------------------||
|-2----------|-2----------||o-2---------------------------------o||
|-0----------|-0----------||--0----------------------------------||
|
|                             PM-----------------------------|
| Q  H.        Q  H.          S S S S S  S S S S S S S S S S S   4x
|------------|------------||-------------------------------------||
|------------|------------||o-----------------------------------o||
|------------|------------||-------------------------------------||
|------------|------------||-------------------------------------||
|-2----------|-2----------||o-----------------------------------o||
|-0----------|-0----------||--0-0-0-0-0--0-0-0-0-0-0-0-0-0-0-0---||


   6/4
    Gtrs I, II
    PM----|      PM----|             PM----|      PM----|
    S S S S E Q  S S S S E Q  Q   3x S S S S E Q  S S S S E Q  Q
||--------------------------------||-------------------------------*|
||o------------------------------o||-------------------------------*|
||--------------------------------||-------------------------------*|
||--------------------------------||-------------------------------*|
||o---------6-6----------6-6--6--o||---------6-6----------6-6--6\--*|
||--0-0-0-0-4-4--0-0-0-0-4-4--4---||-0-0-0-0-4-4--0-0-0-0-4-4--4\--*|



Duration Legend
---------------
W - whole; H - half; Q - quarter; E - 8th; S - 16th; T - 32nd; X - 64th; a - acciaccatura
+ - note tied to previous; . - note dotted; .. - note double dotted
Uncapitalized letters represent notes that are staccato (1/2 duration)
Irregular groupings are notated above the duration line
Duration letters will always appear directly above the note/fret number it represents the
duration for.  Duration letters with no fret number below them represent rests.  Multi-
bar rests are notated in the form Wxn, where n is the number of bars to rest for.  Low
melody durations appear below the staff

Tablature Legend
----------------
 h   - hammer-on
 p   - pull-off
 b   - bend
 pb  - pre-bend
 r   - bend release (if no number after the r, then release immediately)
 /\  - slide into or out of (from/to "nowhere")
 s   - legato slide
 S   - shift slide
 - natural harmonic
[n]  - artificial harmonic
n(n) - tapped harmonic
 ~   - vibrato
 tr  - trill
 T   - tap
 TP  - trem. picking
 PM  - palm muting
\n/  - tremolo bar dip; n = amount to dip
 \n  - tremolo bar down
 n/  - tremolo bar up
/n\  - tremolo bar inverted dip
 =   - hold bend; also acts as connecting device for hammers/pulls
 <> - volume swell (louder/softer)
 x   - on rhythm slash represents muted slash
 o   - on rhythm slash represents single note slash

Misc Legend
-----------
 |  - bar
||  - double bar
||o - repeat start
o|| - repeat end
*|  - double bar (ending)
 :  - bar (freetime)
 $  - Segno
 &  - Coda
Tempo markers -  = BPM(8/16=s8/s16), where s8 = swing 8ths, s16 = swing 16ths

Добавлено: 15.11.2013
Другие материалы по этой песне:

Страница создана 15.11.2013
http://primanota.ru/sepultura/dark-wood-of-error-chords.htm
Привет, Гость.
Предлагаем пройти революционный курс по гитаре.
Подарок от PrimaNota.Ru, забирай!