PrimaNota.ru - самый крупный в мире бесплатный архив песенных текстов, аккордов, табулатур и нот


Septicide - Artillery - таба, видео

Регистрация Запомнить меня
Войти через:  Facebook Google Twitter Vk Yandex Mail.ru

Septicide - Artillery - таба, видео

Печатать
Просмотров: 63
http://www.reverbnation.com/septicide

Septicide (NZ)
Artillery

Tuning - Drop D

KEY - O - Open
      V - Vibrato
      PM/M - Palm Mute
      H - Pitch Harmonic
      ~ - Let Ring

Intro

  O O O V O O O O O O V O O O O O O V O O O O-O O O- O--O V O O O      
E----------------------------------------------------------------|
B----------------------------------------------------------------|
G-7-----7---7--|7-----7---7--|8-----8---8--/10----10-10/8-8-8----|
D---0-0---0---0|--0-0---0---0|--0-0---0---0|--0-0-------------0-0|
A----------------------------------------------------------------|
D----------------------------------------------------------------|

  O O O V O O O O O O V O O O O O O V O O O O-O O O- O--H~~~
E----------------------------------------------------------|
B----------------------------------------------------------|
G-7-----7---7--|7-----7---7--|8-----8---8--/10----10-10-10-|
D---0-0---0---0|--0-0---0---0|--0-0---0---0|--0-0----------|
A----------------------------------------------------------|
D----------------------------------------------------------|

  O O O V O O O O O O V O O O O O O V O O O O-O O O- O--O V O O O 
E----------------------------------------------------------------|
B----------------------------------------------------------------|
G-7-----7---7--|7-----7---7--|8-----8---8--/10----10-10/8-8-8----|
D---0-0---0---0|--0-0---0---0|--0-0---0---0|--0-0-------------0-0|
A----------------------------------------------------------------|
D----------------------------------------------------------------|

  O O O V O O O O O O V O O O O O O V O O O O-O O O- O--H~~~
E----------------------------------------------------------|
B----------------------------------------------------------|
G-7-----7---7--|7-----7---7--|8-----8---8--/10----10-10-10-|
D---0-0---0---0|--0-0---0---0|--0-0---0---0|--0-0----------|
A----------------------------------------------------------|
D----------------------------------------------------------|

Bridge

  PM--------O PM--O PM--------O PM--O PM--------O PM--O O PM--- O---H-
E------------------|-----------------|-----------------|-------------|
B------------------|-----------------|-----------------|-------------|
G------------------|-----------------|-----------------|-------------|
D-----------3-----1|----------7-----8|----------3-----1|-------------|
A-1-1-1-1-0-1-0-0-0|1-1-1-1-0-5-0-0-6|1-1-1-1-0-1-0-0-0|0-------1----|
D-1-1-1-1-0--------|1-1-1-1-0--------|1-1-1-1-0--------|0-1-3-4---3-1| x3

  PM--------O PM--O PM--------O PM--O PM--------O PM--O PM--- H~~~~~~~
E------------------|-----------------|-----------------|-------------|
B------------------|-----------------|-----------------|-------------|
G------------------|-----------------|-----------------|-------------|
D-----------3-----1|----------7-----8|----------3-----1|-------------|
A-1-1-1-1-0-1-0-0-0|1-1-1-1-0-5-0-0-6|1-1-1-1-0-1-0-0-0|0-----3------|
D-1-1-1-1-0--------|1-1-1-1-0--------|1-1-1-1-0--------|0-2-3--------| x1

Verse

  O PM- O PM----O-M-O-O-M-H O PM- O PM----O-M-O-O-M-H 
E--------------------------|-------------------------|
B--------------------------|-------------------------|
G-------------------------6|-------------------------|
D---------------5-6-5-7-5--|--------------5-6-5-7-5--|
A-0-000-1-0-000------------|0-000-1-0-000-----------6|
D-0-000-1-0-000------------|0-000-1-0-000------------|

  O PM- O PM----O-M-O-O-M-H O PM- O PM----O-M-O-O-M-M-M
E--------------------------|---------------------------|
B--------------------------|---------------------------|
G-------------------------6|---------------------------|
D---------------5-6-5-7-5--|--------------5-6-5-7-5----|
A-0-000-1-0-000------------|0-000-1-0-000-----------6-5|
D-0-000-1-0-000------------|0-000-1-0-000-----------6-5|

  PM------------- O O M O O M O O PM------------- O O M O O M O O
E----------------|---------------|---------------|---------------|
B----------------|---------------|---------------|---------------|
G----------------|---------------|---------------|---------------|
D----------------|---------------|---------------|---------------|
A-3-2-1-4-3-2-1-0|4/3-X-1/3-X-4/3|3-2-1-4-3-2-1-0|4/3-X-1/3-X-4/3|
D-3-2-1-4-3-2-1-0|4/3-X-1/3-X-4/3|3-2-1-4-3-2-1-0|4/3-X-1/3-X-4/3|

  O PM- O PM----O-M-O-O-M-H O PM- O PM----O-M-O-O-M-H 
E--------------------------|-------------------------|
B--------------------------|-------------------------|
G-------------------------6|-------------------------|
D---------------5-6-5-7-5--|--------------5-6-5-7-5--|
A-0-000-1-0-000------------|0-000-1-0-000-----------6|
D-0-000-1-0-000------------|0-000-1-0-000------------|

  O PM- O PM----O-M-O-O-M-H O PM- O PM----O-M-O-O-M-M-M
E--------------------------|---------------------------|
B--------------------------|---------------------------|
G-------------------------6|---------------------------|
D---------------5-6-5-7-5--|--------------5-6-5-7-5----|
A-0-000-1-0-000------------|0-000-1-0-000-----------6-5|
D-0-000-1-0-000------------|0-000-1-0-000-----------6-5|

  PM------------- O O M O O M O O PM------------- O O M O O M O O
E----------------|---------------|---------------|---------------|
B----------------|---------------|---------------|---------------|
G----------------|---------------|---------------|---------------|
D----------------|---------------|---------------|---------------|
A-3-2-1-4-3-2-1-0|4/3-X-1/3-X-4/3|3-2-1-4-3-2-1-0|4/3-X-1/3-X-4/3|
D-3-2-1-4-3-2-1-0|4/3-X-1/3-X-4/3|3-2-1-4-3-2-1-0|4/3-X-1/3-X-4/3|

Stops

  O PM- O PM---      O PM- O PM--- Slide        O PM- O PM----------H
E--------------    E--------------            E----------------------
B--------------    B--------------            B----------------------
G--------------    G--------------            G----------------------
D--------------    D--------------            D---------------------2 
A-0-000-1-0-000    A-0-000-1-0-000-15/1/17    A-0-000-1-0-000-0-2-3--
D-0-000-1-0-000 x2 D-0-000-1-0-000-15/1/17 x1 D-0-000-1-0-000-0-2-3-- x1


Bridge

  PM--------O PM--O PM--------O PM--O PM--------O PM--O O PM--- O---H-
E------------------|-----------------|-----------------|-------------|
B------------------|-----------------|-----------------|-------------|
G------------------|-----------------|-----------------|-------------|
D-----------3-----1|----------7-----8|----------3-----1|-------------|
A-1-1-1-1-0-1-0-0-0|1-1-1-1-0-5-0-0-6|1-1-1-1-0-1-0-0-0|0-------1----|
D-1-1-1-1-0--------|1-1-1-1-0--------|1-1-1-1-0--------|0-1-3-4---3-1| x3

  PM--------O PM--O PM--------O PM--O PM--------O PM--O PM--- H~~~~~~~
E------------------|-----------------|-----------------|-------------|
B------------------|-----------------|-----------------|-------------|
G------------------|-----------------|-----------------|-------------|
D-----------3-----1|----------7-----8|----------3-----1|-------------|
A-1-1-1-1-0-1-0-0-0|1-1-1-1-0-5-0-0-6|1-1-1-1-0-1-0-0-0|0-----3------|
D-1-1-1-1-0--------|1-1-1-1-0--------|1-1-1-1-0--------|0-2-3--------| x1

Verse

  O PM- O PM----O-M-O-O-M-H O PM- O PM----O-M-O-O-M-H 
E--------------------------|-------------------------|
B--------------------------|-------------------------|
G-------------------------6|-------------------------|
D---------------5-6-5-7-5--|--------------5-6-5-7-5--|
A-0-000-1-0-000------------|0-000-1-0-000-----------6|
D-0-000-1-0-000------------|0-000-1-0-000------------|

  O PM- O PM----O-M-O-O-M-H O PM- O PM----O-M-O-O-M-M-M
E--------------------------|---------------------------|
B--------------------------|---------------------------|
G-------------------------6|---------------------------|
D---------------5-6-5-7-5--|--------------5-6-5-7-5----|
A-0-000-1-0-000------------|0-000-1-0-000-----------6-5|
D-0-000-1-0-000------------|0-000-1-0-000-----------6-5|

  PM------------- O O M O O M O O PM------------- O O M O O M O O
E----------------|---------------|---------------|---------------|
B----------------|---------------|---------------|---------------|
G----------------|---------------|---------------|---------------|
D----------------|---------------|---------------|---------------|
A-3-2-1-4-3-2-1-0|4/3-X-1/3-X-4/3|3-2-1-4-3-2-1-0|4/3-X-1/3-X-4/3|
D-3-2-1-4-3-2-1-0|4/3-X-1/3-X-4/3|3-2-1-4-3-2-1-0|4/3-X-1/3-X-4/3|

  O PM- O PM----O-M-O-O-M-H O PM- O PM----O-M-O-O-M-H 
E--------------------------|-------------------------|
B--------------------------|-------------------------|
G-------------------------6|-------------------------|
D---------------5-6-5-7-5--|--------------5-6-5-7-5--|
A-0-000-1-0-000------------|0-000-1-0-000-----------6|
D-0-000-1-0-000------------|0-000-1-0-000------------|

  O PM- O PM----O-M-O-O-M-H O PM- O PM----O-M-O-O-M-M-M
E--------------------------|---------------------------|
B--------------------------|---------------------------|
G-------------------------6|---------------------------|
D---------------5-6-5-7-5--|--------------5-6-5-7-5----|
A-0-000-1-0-000------------|0-000-1-0-000-----------6-5|
D-0-000-1-0-000------------|0-000-1-0-000-----------6-5|

  PM------------- O O M O O M O O PM------------- O O M O O M O O
E----------------|---------------|---------------|---------------|
B----------------|---------------|---------------|---------------|
G----------------|---------------|---------------|---------------|
D----------------|---------------|---------------|---------------|
A-3-2-1-4-3-2-1-0|4/3-X-1/3-X-4/3|3-2-1-4-3-2-1-0|4/3-X-1/3-X-4/3|
D-3-2-1-4-3-2-1-0|4/3-X-1/3-X-4/3|3-2-1-4-3-2-1-0|4/3-X-1/3-X-4/3|

Stops

  O PM- O PM---      O PM- O PM--- Slide        O PM- O PM----------H
E--------------    E--------------            E----------------------
B--------------    B--------------            B----------------------
G--------------    G--------------            G----------------------
D--------------    D--------------            D---------------------2 
A-0-000-1-0-000    A-0-000-1-0-000-15/1/17    A-0-000-1-0-000-0-2-3--
D-0-000-1-0-000 x2 D-0-000-1-0-000-15/1/17 x1 D-0-000-1-0-000-0-2-3-- x1

Bridge

  PM--------O PM--O PM--------O PM--O PM--------O PM--O O PM--- O---H-
E------------------|-----------------|-----------------|-------------|
B------------------|-----------------|-----------------|-------------|
G------------------|-----------------|-----------------|-------------|
D-----------3-----1|----------7-----8|----------3-----1|-------------|
A-1-1-1-1-0-1-0-0-0|1-1-1-1-0-5-0-0-6|1-1-1-1-0-1-0-0-0|0-------1----|
D-1-1-1-1-0--------|1-1-1-1-0--------|1-1-1-1-0--------|0-1-3-4---3-1| x3

  PM--------O PM--O PM--------O PM--O PM--------O PM--O PM---------
E------------------|-----------------|-----------------|-------------|
B------------------|-----------------|-----------------|-------------|
G------------------|-----------------|-----------------|-------------|
D-----------3-----1|----------7-----8|----------3-----1|-------------|
A-1-1-1-1-0-1-0-0-0|1-1-1-1-0-5-0-0-6|1-1-1-1-0-1-0-0-0|0-1-3-4-3-1--|
D-1-1-1-1-0--------|1-1-1-1-0--------|1-1-1-1-0--------|0-1-3-4-3-1--| x1

Outro

  OOM OOM OOM OOM OOM OOM OOM OOM 
E----|---|---|---|---|---|---|---|
B----|---|---|---|---|---|---|---|
G----|---|---|---|---|---|---|---|
D----|---|---|---|---|---|---|---|
A-00X|00X|00X|00X|00X|00X|00X|00X|
D-00X|00X|00X|00X|00X|00X|00X|00X| X1

  O O OOM OOM OOM OOM O O OOM OOM OOM OOM 
E----|---|---|---|---|---|---|---|---|---|
B----|---|---|---|---|---|---|---|---|---|
G----|---|---|---|---|---|---|---|---|---|
D----|---|---|---|---|---|---|---|---|---|
A-0-1|33X|33X|33X|33X|1-4|33X|33X|33X|33X|
D-0-1|33X|33X|33X|33X|1-4|33X|33X|33X|33X| X2


  O O OOM OOM OOM OOM O O OOM OOM OOM OOM OOM OOM OOM OOO
E----|---|---|---|---|---|---|---|---|---|---|---|---|---|
B----|---|---|---|---|---|---|---|---|---|---|---|---|---|
G----|---|---|---|---|---|---|---|---|---|---|---|---|---|
D----|---|---|---|---|---|---|---|---|---|---|---|---|---|
A-0-1|33X|33X|33X|33X|1-4|33X|33X|33X|33X|33X|33X|33X|330|
D-0-1|33X|33X|33X|33X|1-4|33X|33X|33X|33X|33X|33X|33X|330| X1
Добавлено: 19.10.2013
Другие материалы по этой песне:
  • Аккорды и текст

Страница создана 19.10.2013
http://primanota.ru/septicide/artillery-chords.htm
Привет, Гость.
Предлагаем пройти революционный курс по гитаре.
Подарок от PrimaNota.Ru, забирай!