PrimaNota.ru - самый крупный в мире бесплатный архив песенных текстов, аккордов, табулатур и нот


Septembre - Rule 3 Conceal Your Intentions Ep (album) - таба, видео

Регистрация Запомнить меня
Войти через:  Facebook Google Twitter Vk Yandex Mail.ru

Septembre - Rule 3 Conceal Your Intentions Ep (album) - таба, видео

Печатать
Просмотров: 114
::septembre::
-------------
RULE 3: CONCEAL YOUR INTENTIONS E.P. (Released by Sugar Shack Records 12 april 2004)
------------------------------------------------------------------------------------
Guitar part and Vocals by Terry Abbott (ex-Vex Red)
Bass part by Manuel Carrero (from Glassjaw)
Drums part by Ash Soan (http://www.ashsoan.com/)
Produced by Ross Robinson
Mixed by Mike Fraser
--------------------
Guitar tab by Andrew A. Terexin (Russia/Moscow) [6.s8dashes@gmail.com]
Used: Epiphone Les Paul Studio with D'Addario 12-52 jazz steel strings,
Digitech RP-155, Line 6 Toneport GX Mk2, Guitar Rig 5 Player and original Maxi-Single copy of CD
------------------------------------------------------------------------------------------------

SONG 1 : I AM WEIGHTLESS
------------------------
Tuning - Drop D [D A D G B E]

Intro (Starts play from 0:08)
1)
E |---------------|
B |---------------|
G |--7-7-7-7-x-7--|
D |--x-x-x-x-x-x--|
A |--5-5-5-5-x-5--|
D |----------x----|

2)
E |-----------------------------------------------------|
B |-----------------------------------------------------|
G |--9-9-9-9-9-9-9-9-9-9-9-9-9-9-9-9-9-9-9-9-9-9-9-9-9--|
D |--7-7-7-7-7-7-7-7-7-7-7-7-7-7-7-7-7-7-7-7-7-7-7-7-7--|
A |--7-7-7-7-7-7-7-7-7-7-7-7-7-7-7-7-7-7-7-7-7-7-7-7-7--|
D |--7-7-7-7-7-7-7-7-7-7-7-7-7-7-7-7-7-7-7-7-7-7-7-7-7--|

3)
E |---------------------------------------------|
B |--------------------------3~-----------------|
G |-------------------------2~------------------|
D |--/10-12-10-7-10-7-0----0~---3--3-x-0--0-0/--|
A |--/10-12-10-7-10-7-0---0~----3--3-x-0--0-0/--|
D |--/10-12-10-7-10-7-0--0~-----3--3-x-0--0-0/--|

4) Pre-chorus
E |-------------------------------------------------------|
B |-------------------------------------------------------|
G |--9--9-9-9--9-9-9--9-9-9-9-9--7--7-7-x-x-12--12-12-12--|
D |--7--7-7-7--7-7-7--7-7-7-7-7--5--5-5-x-x-10--10-10-10--|
A |--7--7-7-7--7-7-7--7-7-7-7-7--5--5-5-x-x-10--10-10-10--|
D |--7--7-7-7--7-7-7--7-7-7-7-7--5--5-5-x-x-10--10-10-10--|

  |                  Clean                 | Distort |
E |----------------------------------------------------|
B |----------------------------------------------------|
G |--9--9-9-9--9-9-9--9-9-9-9-9--7--7-7-x-x-12~--------|
D |--7--7-7-7--7-7-7--7-7-7-7-7--5--5-5-x-x-10~--/19\--|
A |--7--7-7-7--7-7-7--7-7-7-7-7--5--5-5-x-x-10~--/19\--|
D |--7--7-7-7--7-7-7--7-7-7-7-7--5--5-5-x-x-10~--/19\--|

5) Chorus:
E |---------------------------------------------------|
B |---------------------------------------------------|
G |-------------------------------------------5-------|
D |--7-7-7-7-7-7-3-3-3-3-3-3-0-0--0-4--0-0--0-5-0-4/--|
A |--7-7-7-7-7-7-3-3-3-3-3-3-0-0--0-4--0-0--0-3-0-4/--|
D |--7-7-7-7-7-7-3-3-3-3-3-3-0-0--0-4--0-0--0---0-4/--|

6)
E |----------------------------|
B |---------3~-----------------|
G |--------2~------------------|
D |--0----0~---3--3-x-0--0-0/--|
A |--0---0~----3--3-x-0--0-0/--|
D |--0--0~-----3--3-x-0--0-0/--|

7) 2nd pre-chorus
E |-------------------|
B |-------------------|
G |--7-7-7-7-7-7-7-7--|
D |--x-x-x-x-x-x-x-x--|
A |--5-5-5-5-5-5-5-5--|
D |-------------------|
    |     Bend^     |

8) 2nd chorus (Final)
E |---------------------------|
B |---------------------------|
G |---------------------------|
D |--7-7-7-7-7-7-3-3-3-3-3-3--|
A |--7-7-7-7-7-7-3-3-3-3-3-3--|
D |--7-7-7-7-7-7-3-3-3-3-3-3--|

9) Pre-bridge
E |----------------------------------------------------------------------------------------|
B |----------------------------------------------------------------------------------------|
G |-----------------------------------------------------------------------------------7-7--|
D |-----------------------------------------------------------------------------------0-0--|
A |---------------------3--------------------------3--------------------------3-------0-0--|
D |--0-0-0-0-4b-0-0-0-0---0-4b--0-0-0-0-4b-0-0-0-0---0-4b--0-0-0-0-4b-0-0-0-0---0-4b--0-0--|

Bridge
10)
E |------------------------|
B |------------------------|
G |------7-------7--7-7----|
D |--0-0-x-0-0-0-6--6-6-0--|
A |--0-0-5-0-0-0-5--5-5-0--|
D |--0-0-0-0-0-0-0--0-0-0--|

11)
E |---------------------------------|
B |---------------------------------|
G |----------7-----------7-7-7-7----|
D |--0-0-0-0-x-0-0-0-0-0-6-6-6-6-0--|
A |--0-0-0-0-5-0-0-0-0-0-5-5-5-5-0--|
D |--0-0-0-0-0-0-0-0-0-0-0-0-0-0-0--|

Ending
12)
E |-------------------------|
B |-------------------------|
G |---------------------12--|
D |--0-0-0-0-4b-0-0-0-0-11--|
A |--0-0-0-0-4b-0-0-0-0-10--|
D |--0-0-0-0-4b-0-0-0-0-10--|

Sequence
1)x1
2)x3
3)x1
2)x1
3)x1
4)x1
5)x4
6)x1
2)x1
3)x1
7)x1
5)x3
8)x1
9)x1
10)x4
11)x3
12)x1


SONG 2 : ALWAYS
---------------
Tuning - Drop C# [C# G# C# F# A# D#]

Intro
1)
D# |------------------------------|
A# |------------------------------|
F# |---------------7b-----8b------|
C# |--9-9-9-0--0-x-x--0-x-x--0-x--|
G# |--9-9-9-0--0-x-5b-0-x-6b-0-x--|
C# |--9-9-9-0--0-x----0-x----0-x--|

2)                         | Clean |
D# |---------------------------------|
A# |---------------------------------|
F# |---------------------------------|
C# |--9-9-9-5-5-5-5-5-5-5---4/5\4-0~-|
G# |--9-9-9-5-5-5-5-5-5-5---4/5\4-0~-|
C# |--9-9-9-5-5-5-5-5-5-5---4/5\4-0~-|

Pre-1st chorus
3) Clean
D# |-----------------------------------------------------------------------------------|
A# |--3--3-3--5-5--5-5--3-3--3-3--5-5--5-5--3-3--3-3------------0--0-0--0-0--0--0-0-0--|
F# |--2--2-2--2-2--2-2--2-2--2-2--2-2--2-2--2-2--2-2--6-6--6-6--0--0-0--0-0--0--0-0-0--|
C# |--0--0-0--0-0--0-0--0-0--0-0--0-0--0-0--0-0--0-0--0-0--0-0--5--5-5--5-5--5--5-5-5--|
G# |--0--0-0--0-0--0-0--0-0--0-0--0-0--0-0--0-0--0-0--0-0--0-0--5--5-5--5-5--5--5-5-5--|
C# |--0--0-0--0-0--0-0--0-0--0-0--0-0--0-0--0-0--0-0--0-0--0-0--5--5-5--5-5--5--5-5-5--|

4) Clean
D# |--------------------------------------------------------|
A# |--------------------------------------------------------|
F# |--11--11-11-11-11--11--11-11-11-7-7--7-7-7-7--7--7-7-7--|
C# |--9---9--9--9--9---9---9--9--9--5-5--5-5-5-5--5--5-5-5--|
G# |--9---9--9--9--9---9---9--9--9--5-5--5-5-5-5--5--5-5-5--|
C# |--9---9--9--9--9---9---9--9--9--5-5--5-5-5-5--5--5-5-5--|

5) Clean
D# |-------------------------------------------------------------------------|
A# |--3--3-3--5-5--5-5--3-3--3-3--5-5--5-5--3-3--3-3------------0--0-0--0-0--|
F# |--2--2-2--2-2--2-2--2-2--2-2--2-2--2-2--2-2--2-2--6-6--6-6--0--0-0--0-0--|
C# |--0--0-0--0-0--0-0--0-0--0-0--0-0--0-0--0-0--0-0--0-0--0-0--5--5-5--5-5--|
G# |--0--0-0--0-0--0-0--0-0--0-0--0-0--0-0--0-0--0-0--0-0--0-0--5--5-5--5-5--|
C# |--0--0-0--0-0--0-0--0-0--0-0--0-0--0-0--0-0--0-0--0-0--0-0--5--5-5--5-5--|

6)
D# |---------|
A# |---------|
F# |----5----|
C# |--4-5-4--|
G# |--4-3-4--|
C# |--4---4--|

7) 1st chorus
D# |--------------------------------------------------------------------|
A# |--------------------------------------------------------------------|
F# |----6-6-6-6---7b-----6-6-6-6-6-6-6-6--------------------------------|
C# |--0-x-x-x-x-x-x--x-0-x-x-x-x-x-x-x-x-0-5-5-5-5-5-5-8-8-8-3-x-x-x-3--|
G# |--0-4-4-4-4-x-5b-x-0-4-4-4-4-4-4-4-4-0-5-5-5-5-5-5-8-8-8-3-x-x-x-3--|
C# |--0---------x----x-0-----------------0-5-5-5-5-5-5-8-8-8-3-x-x-x-3--|
       | Bend^ |        |     Bend^     |
8)
D# |-----0~--0~-----0~---------|
A# |-----0~--0~-----0~---------|
F# |-----0~--0~-----0~---------|
C# |--0~--------0~------3-3-3--|
G# |--0~--------0~------3-3-3--|
C# |--0~--------0~------3-3-3--|

Pre-2nd chorus
9) Clean
D# |-----------------------------------------------|
A# |-----------------------------------------------|
F# |-----------------------------------------------|
C# |--0-0-0-0-0-0-0-0-0-0-0-0-0-0-0-0-9-9-9-9-9-9--|
G# |--0-0-0-0-0-0-0-0-0-0-0-0-0-0-0-0-9-9-9-9-9-9--|
C# |--0-0-0-0-0-0-0-0-0-0-0-0-0-0-0-0-9-9-9-9-9-9--|

10) Clean
D# |-------------------------------------------------|
A# |-------------------------------------------------|
F# |--7--7-7--7-7--7--7-7-7-7--7--7-7-7-7--7--7-7-7--|
C# |--5--5-5--5-5--5--5-5-5-5--5--5-5-5-5--5--5-5-5--|
G# |--5--5-5--5-5--5--5-5-5-5--5--5-5-5-5--5--5-5-5--|
C# |--5--5-5--5-5--5--5-5-5-5--5--5-5-5-5--5--5-5-5--|

D# |-----------------------------------------------|
A# |-----------------------------------------------|
F# |--9--9-9-9-9--9--9-9-9-9--9--9-9-9-9--9-9-9-9--|
C# |--7--7-7-7-7--7--7-7-7-7--7--7-7-7-7--7-7-7-7--|
G# |--7--7-7-7-7--7--7-7-7-7--7--7-7-7-7--7-7-7-7--|
C# |--7--7-7-7-7--7--7-7-7-7--7--7-7-7-7--7-7-7-7--|

11) Clean
D# |--5-------5-------5-------5-------|
A# |-----2-3-----2-3-----2-3-----2-3--|
F# |----------------------------------|
C# |----------------------------------|
G# |----------------------------------|
C# |----------------------------------|

12)
D# |----------|
A# |----------|
F# |----------|
C# |--x--x-x--|
G# |--x--x-x--|
C# |--x--x-x--|

13) 2nd chorus (Final)
D# |----------------------------------------------------------|
A# |----------------------------------------------------------|
F# |----6-6-6-6---7b-----6-6-6-6-6-6-6-6----------------------|
C# |--0-x-x-x-x-x-x--x-0-x-x-x-x-x-x-x-x-0-5-5-5-5-5-5-8-8-8--|
G# |--0-4-4-4-4-x-5b-x-0-4-4-4-4-4-4-4-4-0-5-5-5-5-5-5-8-8-8--|
C# |--0---------x----x-0-----------------0-5-5-5-5-5-5-8-8-8--|
       | Bend^ |         |     Bend^    |
14)
D# |--------------------------------------------------------------|
A# |--------------------------------------------------------------|
F# |---------------7-----8-8--8--8-8-8--8--8-8-8--8--8-8-8--8--8--|
C# |--9-9-9-0--0-x-x-0-x-x-x--x--x-x-x--x--x-x-x--x--x-x-x--x--x--|
G# |--9-9-9-0--0-x-5-0-x-6-6--6--6-6-6--6--6-6-6--6--6-6-6--6--6--|
C# |--9-9-9-0--0-x---0-x------------------------------------------|

Bridge
15)
D# |---------------------------------------------------------------------------------------|
A# |---------------------------------------------------------------------------------------|
F# |---------------------------------------------------------------------7-7-7-7-7--5-5-5--|
C# |--8--8-8-8-8-8--8-8-8-8-8--8-8-8-8-8/10-10\9--5--5-5-5-5-5--5-5-5-5--x-x-x-x-x--x-x-x--|
G# |--8--8-8-8-8-8--8-8-8-8-8--8-8-8-8-8/10-10\9--5--5-5-5-5-5--5-5-5-5--5-5-5-5-5--3-3-3--|
C# |--8--8-8-8-8-8--8-8-8-8-8--8-8-8-8-8/10-10\9--5--5-5-5-5-5--5-5-5-5--------------------|

16)
D# |-----------------------------------------------------------------------------------|
A# |-----------------------------------------------------------------------------------|
F# |-----------------------------------------------------------------------------------|
C# |--8--8-8-8-8-8--8-8-8-8-8--8-8-8-8-8/10-10\9--5-5-5-5-5-5-5-5-5-5-5-5-5-5-5-5-5-5--|
G# |--8--8-8-8-8-8--8-8-8-8-8--8-8-8-8-8/10-10\9--5-5-5-5-5-5-5-5-5-5-5-5-5-5-5-5-5-5--|
C# |--8--8-8-8-8-8--8-8-8-8-8--8-8-8-8-8/10-10\9--5-5-5-5-5-5-5-5-5-5-5-5-5-5-5-5-5-5--|
                                                  . . . . . . . . . . . . . 
17)
D# |-----------------------------------------------------------------|
A# |-----------------------------------------------------------------|
F# |--7-------7-------7--------------5-------5-------5---------------|
C# |--x-0-0-0-x-0-0-0-x-0-0-00-3-4-5-x-0-0-0-x-0-0-0-x-0-0-00-3-5-0--|
G# |--5-0-0-0-5-0-0-0-5-0-0-00-3-4-5-3-0-0-0-3-0-0-0-3-0-0-00-3-5-0--|
C# |----0-0-0---0-0-0---0-0-00-3-4-5---0-0-0---0-0-0---0-0-00-3-5-0--|

18)
D# |------0-------0-------0------------------0---------0-------0-----------|
A# |------0-------0-------0------------------0---------0-------0-----------|
F# |--7---0---7---0---7---0--------------5---0---5/7---0---5---0-----------|
C# |--x-0-0-0-x-0-0-0-x-0-0-00h3-3/4-4/5-x-0-0-0-x/x-x-0-0-x-0-0-00-3-5-0--|
G# |--5-0-0-0-5-0-0-0-5-0-0-00h3-3/4-4/5-3-0-0-0-3/5-x-0-0-3-0-0-00-3-5-0--|
C# |----0-0-0---0-0-0---0-0-00h3-3/4-4/5---0-0-0-----x-0-0---0-0-00-3-5-0--|
        .       .       .                  .                 .          .
19)
D# |-----|
A# |-----|
F# |-----|
C# |--0~-|
G# |--0~-|
C# |--0~-|

Ending
20) Clean (1st guitar)
D# |--------10-----10-------
A# |-----8------------------
F# |--0----------0----------
C# |------------0----------0
G# |-----------0----------0-
C# |---------------------0--

21) Clean (2nd Guitar)
D# |-------10------10-------------10------10---------|
A# |--10-----10------8-7~---10------10------7~--7\3~-|
F# |-----------12-----------12--------12-------------|
C# |-------------------------------------------------|
G# |-------------------------------------------------|
C# |-------------------------------------------------|

Sequence:
1)x1
2)x3
3)x1
2)x1
3)x1
4)x2
5)x1
6)x1
7)x2
8)x1
9)x2
10)x2
11)x1
12)x1
7)x3
13)x1
1)x2
14)x1
15)x3
16)x1
17)x2
18)x2
19)x1
20)x4 / 21)x2


SONG 3 : HAPPY
--------------
Tuning - Drop D [D A D G B E]

1)
E |----------------|
B |----------------|
G |----------------|
D |----12--12------|
A |---0---10---10--|
D |--0---10---10---|

Pre-chorus
2)
E |------------------------------------------------------|
B |------------------------------------------------------|
G |------------------------------------------------------|
D |----5---3-------12---12--------12--12--12--12--12\10--|
A |---3---3---3---10---10---10---0---0---0---0---0-------|
D |--3---3---3---10---10---10---0---0---0---0---0--------|

3)
E |--------------------------------------------------|
B |--------------------------------------------------|
G |--------------------------------------------------|
D |----10--10------10--10------5---5-------5---5-----|
A |---8---8---8---8---8---8---5---5---5---5---5---5--|
D |--8---8---8---8---8---8---5---5---5---5---5---5---|

Chorus
4)
E |--------------------------------------------------------|
B |--------------------------------------------------------|
G |--------------------------------------------------------|
D |----12--12------12-14-12-------5---5-------12---12------|
A |---0---0---0---10--------10---3---3---3---10---10---10--|
D |--0---0---0---10--------10---3---3---3---10---10---10---|

5)
E |-----------------------------------------------------|
B |-----------------------------------------------------|
G |-----------------------------------------------------|
D |----12--12------12-14-12-------3---3-------3---3-----|
A |---0---0---0---10--------10---3---3---3---3---3---3--|
D |--0---0---0---10--------10---3---3---3---3---3---3---|

After 2nd chorus
6)
E |-----------------------------------|
B |-----------------------------------|
G |-----------------------------------|
D |--3--3-3-3--3-3--3--3-3-3-3-3-3-3--|
A |--3--3-3-3--3-3--3--3-3-3-3-3-3-3--|
D |--3--3-3-3--3-3--3--3-3-3-3-3-3-3--|

Pre-bridge
7)
E |-----------------------------------|
B |--------------------------------8~-|
G |--------------------------------7~-|
D |----9~--7--9--9~p7---0~--4h5p4--5~-|
A |---7~------7--7------0~-------5----|
D |--7~-------7--7------0~----------~-|

8)
E |------------------------|
B |------8--8-8-8-8-8-8-8--|
G |-----7---7-7-7-7-7-7-7--|
D |----5----5-5-5-5-5-5-5--|
A |---5-----5-5-5-5-5-5-5--|
D |--5------5-5-5-5-5-5-5--|

Bridge
9)
E |--------------------------------------------------|
B |--10--10-10--10-10-10-10-10-10-3-3---8--8-8--8-8--|
G |--9---9--9---9--9--9--9--9--9--2-2---7--7-7--7-7--|
D |--9---7--7---9--9--9--7--7--7--0-0---5--5-5--5-5--|
A |--7---7--7---7--7--7--7--7--7--0-0---5--5-5--5-5--|
D |--7---7--7---7--7--7--7--7--7--0-0---5--5-5--5-5--|

Final
10)
E |-------|
B |--10~--|
G |--9~---|
D |--7~---|
A |--7~---|
D |--7~---|

Sequence:
1)x16
2)x2
3)x2
4)x1
5)x1
1)x12
2)x2
3)x2
4)x1
5)x1
4)x1
5)x1
6)x1
7)x5
8)x1
9)x8
10)x1

SONG 4 : (FACE)
---------------
Tuning - Drop C# [C# G# C# F# A# D#]

All song plays with Chorus pedal effect.
* - Plays on a little volume.

1)*
D# |---------------------|
A# |---------------------|
F# |--7-7--/11--\7---\6~-|
C# |--x-x---x----x----x~-|
G# |--5-5--/9---\5---\4~-|
C# |---------------------|

Pre-1st chorus
2)*
D# |-------------------------------------------------|
A# |-------------------------------------------------|
F# |-----11------11------11------11------11------11--|
C# |----9-------9-------9-------11------9-------9----|
G# |---9-------9-------9-------9-------9-------9-----|
C# |--9-------9-------9-------9-------9-------9------|

1st chorus
3)*
D# |-----------------------------------------------------------------------------|
A# |-----------------------------------------------------------------------------|
F# |-----4-------4------7------------9-------11------11------11------7-------11--|
C# |----2-------2--------0----------7-------9-------9-------11------0-------9----|
G# |---2-------2----------0--------7-------9-------9-------9-------0-------9-----|
C# |--2-------2------------0------7-------9-------9-------9-------0-------9------|

Pre-2nd chorus
4)*
D# |----------------------------------------------|
D# |----------------------------------------------|
A# |----------------------------------------------|
F# |--11------11------11------11------11------11--|
C# |--9-------9-------9-------11------9-------9---|
G# |--9-------9-------9-------9-------9-------9---|
C# |--9-------9-------9-------9-------9-------9---|

2nd chorus
5)
D# |--------------------------------------------------------------------|
A# |--------------------------------------------------------------------|
F# |--4-------4------7-------7-------9------9-------11------11------11--|
C# |--2-------2-------0------0-------7------7-------9-------9-------11--|
G# |--2-------2--------0-----0-------7------7-------9-------9-------9---|
C# |--2-------2---------0----0-------7------7-------9-------9-------9---|

6)
D# |------------------------------------|
A# |------------------------------------|
F# |--7-------9------9------11------11--|
C# |--0-------7------7------9-------9---|
G# |--0-------7------7------9-------9---|
C# |--0-------7------7------9-------9---|

Bridge (1st guitar)
7)
D# |------------------|
A# |------------------|
F# |--4~-------/11~\--|
C# |--2~-------/9~-\--|
G# |--2~-------/9~-\--|
C# |--2~-------/9~-\--|

8) Final
D# |-----|
A# |-----|
F# |--2~-|
C# |--0~-|
G# |--0~-|
C# |--0~-|

Bridge (2nd guitar)
9)
D# |----------|
A# |----------|
F# |----------|
C# |--0/22\0--|
G# |--0/22\0--|
C# |--0/22\0--|

10)
D# |----------------------------|
A# |----------------------------|
F# |--14~---13--11--9--8--4/14--|
C# |--x-----x---x---x--x--x/x---|
G# |--12~---11--9---7--6--2/12--|
C# |----------------------------|

11)
D# |--------------------------|
A# |--------------------------|
F# |--14~----13--11--9--8--7~-|
C# |--x------x---x---x--x--x~-|
G# |--12~----11--9---7--6--5~-|
C# |--------------------------|

Final
12) Clean
D# |-------------------------------------------------------------------------|
A# |------7-----8-7---------7-----8-7---------7-----10-8-7------8-------8-7--|
F# |----7-----7-----7-----7-----7-----7-----7-----7-----------7---7---7------|
C# |--------0-----------------0-----------------0-----------5-------5--------|
G# |-------------------------------------------------------------------------|
C# |--0----------------0-----------------0-----------------------------------|

13) Clean
D# |-----------|
A# |-----------|
F# |-----------|
C# |-----------|
G# |-----------|
C# |--0--0--0--|

Sequence:
1)x10
2)x1
3)x1
1)x6
4)x1
5)x1
6)x2
7)x8
8)x1
After 7)x3 / 9)x1, 10)x3
11)x1
12)x6
13)x5

SYMBOLS
-------
/ - slide up
\ - slide down
b - bend
h - hammer-on
p - pull-off
x - muted string
. - palm muting

SOME NOTES
----------
So, finally after a long time i make full tablature to this incredibly, magnificent and now
completely forgotten ::septembre's:: mini-album - the only record they officialy released.
As I have the original copy of this rare cd the high-quality of songs helped me to figure it out,
but intertwining of guitars just put a spoke in the wheel. Nonetheless I tried not to miss a
single detail. This is not a first guitar tab i ever made but it's absolutly the first tab i ever
published.
So, you can play whole E.P. in a Drop C# tuning with capo.
The final of 3rd part of I AM WEIGHTLESS originally played like this:
E |------------------|
B |------------------|
G |------------------|
D |--3--3-x-4--4-4/--|
A |--3--3-x-4--4-4/--|
D |--3--3-x-4--4-4/--|
but if you playing without a bass this variant sounds much better.
I'm not sure about 9th part of (FACE), maybe it's a pick-slide on a 6th string, but in principle
I think it sounds correct.
ALWAYS in my opinion the most difficult song on the whole record. That song a.... very very
guitar))
And I think this is the only song in which I could make mistakes, especially in the
acoustic/clean part.

Otherwise, I think, everything seems correct.

Take your comments and edits. I consider everything and make corrections if that right.

Thank you very much. Enjoy it! I hope this helps.
I think 'Change Your Colours' next =)

P.S. Sorry for my curve english if that isn't so.

P.P.S. HOLY SHIT!!!VEX RED IS BACK!!!!!!!!!!!!!!!!!!-----------------------------https://instagram.com/vex.red/
Добавлено: 06.12.2015
Другие материалы по этой песне:
  • Аккорды и текст

Страница создана 06.12.2015
http://primanota.ru/septembre/rule-3-conceal-your-intentions-ep-album-chords.htm
Привет, Гость.
Предлагаем пройти революционный курс по гитаре.
Подарок от PrimaNota.Ru, забирай!