PrimaNota.ru - самый крупный в мире бесплатный архив песенных текстов, аккордов, табулатур и нот


Sentencia Previa - Promesas - таба, бас-таба, видео

Регистрация Запомнить меня
Войти через:  Facebook Google Twitter Vk Yandex Mail.ru

Sentencia Previa - Promesas - таба, бас-таба, видео

Печатать
Просмотров: 105
-------------------------------------------------------------------------------
                             Promesas - Sentencia Previa
-------------------------------------------------------------------------------
Tabbed by: julianPapurt 
E-mail: pluss-182@4hotmail.com

Tuning: Drop C

Intro:

Guitarra #1

D|------------------------------------------------------------------------|
A|------------------------------------------------------------------------|
F|------------------------------------------------------------------------|
C|------------------------------------------------------------------------|
G|-0--0--0--------0-0-0-0-0-0-0-0-0--------5--5--5--------5-5---5-5----5--|
C|-0--0--0--------0-0-0-0-0-0-0-0-0--------5--5--5--------5-5---5-5----5--|

D|-------------------------------------------------|
A|-------------------------------------------------|
F|-------------------------------------------------|
C|-------------------------------------------------|
G|-9--9--9--9--7--7--7--7--5--5--5--5--5--5--5--5--|
C|-9--9--9--9--7--7--7--7--5--5--5--5--5--5--5--5--|

Guitarra #2

D|-------------------------------------------------------------|
A|-------------------------------------------------------------|
F|-7--9--8----7--7--7---7----9---11--11----7--9--9----6--7--7--|
C|-x--x--x----x--x--x---x----x---x---x-----x--x--x----x--x--x--|
G|-5--7--5----5--5--5---5----7---9---9-----5--7--7----4--5--5--|
C|-------------------------------------------------------------|

Verso:

D|------------------------------------------------------------|
A|------------------------------------------------------------|
F|------------------------------------------------------------|
C|---------------------------------------------4-------4------|
G|-0000000000000000000000000000----5----5----7---7-5-7---7-5--|
C|-0000000000000000000000000000----5----5---------------------|

D|----------------------------------------------|
A|----------------------------------------------|
F|----------------------------------------------|
C|----------------------------------------------|
G|----9--9--9--9--9--9--7--7--7--7--7--7--7--7--|
C|----9--9--9--9--9--9--7--7--7--7--7--7--7--7--|

D|-------------------------------------------------------------------|
A|-------------------------------------------------------------------|
F|---------------------------7-7-7-7-7-7-7-7-9-9-9-9-11-11-11-11-11--|
C|-------------------------------------------------------------------|
G|-0-0000-00000-0-000000000------------------------------------------|
C|-0-0000-00000-0-000000000------------------------------------------|

D|---------------------------------------------------------------|
A|---------------------------10---10---10---10---8---8----7-7-7--|
F|------------------------------7----7----7----7---7---7--7-7-7--|
C|---------------------------------------------------------------|
G|-0-0000-00000-0-000000000--------------------------------------|
C|-0-0000-00000-0-000000000--------------------------------------|

Coro:

D|------------------------------------------------------------------|
A|------------------------------------------------------------------|
F|------------------------------------------------------------------|
C|------------------------------------------------------------------|
G|-5--5-5-5-5-5-5-5-5-5-5-5-5-5-5-5-2--2-2-2-2-2-2-2-2-2-2-2-2-2-2--|
C|-5--5-5-5-5-5-5-5-5-5-5-5-5-5-5-5-2--2-2-2-2-2-2-2-2-2-2-2-2-2-2--|

D|------------------------------------------------------------------|
A|------------------------------------------------------------------|
F|------------------------------------------------------------------|
C|-4--4-4-4-4-4-4-4-4-4-4-4-4-4-4-4-7--7-7-7-7-7-7-7-7-7-7-7-7-7-7--|
G|-2--2-2-2-2-2-2-2-2-2-2-2-2-2-2-2-5--5-5-5-5-5-5-5-5-5-5-5-5-5-5--|
C|------------------------------------------------------------------| x2

D|-----------------|
A|-----------------|
F|-11----11----11--|
C|-9-----9-----9---|
G|-7-----7-----7---|
C|-----------------| x2

Verso:

Guitarra #1

D|------------------------------------------------------------------|
A|---3---3---3---3---3---3---3---3-7---7---7---5---5---5---5---5----|
F|-4---4---4---6---6---6---6---6-----7---7---7---7---7---7---7---7--|
C|------------------------------------------------------------------|
G|------------------------------------------------------------------|
C|------------------------------------------------------------------|

D|---------------------------------------------------------------------|
A|---3---3---3---3---3---3---3---3-10---10---10---8---8---8---8---8----|
F|-4---4---4---6---6---6---6---6------7----7----7---7---7---7---7---7--|
C|---------------------------------------------------------------------|
G|---------------------------------------------------------------------|
C|---------------------------------------------------------------------|

D|------------------------------------------------------------------|
A|---3---3---3---3---3---3---3---3-7---7---7---7---7---7---7---7----|
F|-4---4---4---6---6---6---6---6-----7---7---7---7---7---7---7---7--|
C|------------------------------------------------------------------|
G|------------------------------------------------------------------|
C|------------------------------------------------------------------| x2

Guitarra #2

D|----------------------------------------------------------------------------------|
A|----------------------------------------------------------------------------------|
F|----------------------------------------------------------------------------------|
C|----------------------------------------------------------------------------------|
G|-9-9-9-9-9-9-11-11-11-11-11-11-11-11-11-11-12-12-12-12-12-12-5-5-5-5-5-5-5-5-5-5--|
C|-9-9-9-9-9-9-11-11-11-11-11-11-11-11-11-11-12-12-12-12-12-12-5-5-5-5-5-5-5-5-5-5--|

D|----------------------------------------------------------------------------------|
A|----------------------------------------------------------------------------------|
F|----------------------------------------------------------------------------------|
C|----------------------------------------------------------------------------------|
G|-9-9-9-9-9-9-11-11-11-11-11-11-11-11-11-11-12-12-12-12-12-12-2-2-2-2-2-2-2-2-2-2--|
C|-9-9-9-9-9-9-11-11-11-11-11-11-11-11-11-11-12-12-12-12-12-12-2-2-2-2-2-2-2-2-2-2--|

Interludio:

D|-------------------|
A|-3----3----3----3--|
F|-------------------|
C|-4----2---------2--|
G|-2----0----5----0--|
C|-----------5-------| x2

D|------------------------------------------------------------------|
A|------------------------------------------------------------------|
F|------------------------------------------------------------------|
C|------------------------------------------------------------------|
G|-9-9-9-9-9-9-9-9-7-7-7-7-7-7-7-7-5-5-5-5-5-5-5-5-7-7-7-7-7-7-7----|
C|-9-9-9-9-9-9-9-9-7-7-7-7-7-7-7-7-5-5-5-5-5-5-5-5-7-7-7-7-7-7-7----|

Guitarra #2

D|-10-10-10-10-10-10-10-10-10-10-10-10-10-10-10-10-10-10-10-10-10-10-10-10-9-9-9-9-9-9-9-9-|
A|-----------------------------------------------------------------------------------------|
F|-----------------------------------------------------------------------------------------|
C|-----------------------------------------------------------------------------------------|
G|-----------------------------------------------------------------------------------------|
C|-----------------------------------------------------------------------------------------|

D|-5-5-5-5-5-5-5-5-5-5-5-5-5-5-5-5-5-5-5-5-5-5-5-5-5-5-5-5-5-5-5-5-5-5-5-5-7-7-7-7-7-7-7-7-|
A|-----------------------------------------------------------------------------------------|
F|-----------------------------------------------------------------------------------------|
C|-----------------------------------------------------------------------------------------|
G|-----------------------------------------------------------------------------------------|
C|-----------------------------------------------------------------------------------------|

D|-2-2-2-2-2-2-2-2-2-2-2-2-2-2-2-2-2-2-2-2-2-2-2-2-2-2-2-2-2-2-2-2-2-2-2-2-3-3-3-3-3-3-3-3-|
A|-----------------------------------------------------------------------------------------|
F|-----------------------------------------------------------------------------------------|
C|-----------------------------------------------------------------------------------------|
G|-----------------------------------------------------------------------------------------|
C|-----------------------------------------------------------------------------------------|

D|-0-0-0-0-0-0-0-0-0-0-0-0-0-0-0-0-0-0-0-0-0-0-0-0-0-0-0-0-0-0-0-0-0-0-0-0-0-0-0-0-0-0-0-0-|
A|-----------------------------------------------------------------------------------------|
F|-----------------------------------------------------------------------------------------|
C|-----------------------------------------------------------------------------------------|
G|-----------------------------------------------------------------------------------------|
C|-----------------------------------------------------------------------------------------|

D|-10-10-10-10-10-10-10-10-10-10-10-10-10-10-10-10-10-10-10-10-10-10-10-10-12-12-12-12-12-12-12-12-|
A|-------------------------------------------------------------------------------------------------|
F|-------------------------------------------------------------------------------------------------|
C|-------------------------------------------------------------------------------------------------|
G|-------------------------------------------------------------------------------------------------|
C|-------------------------------------------------------------------------------------------------|

D|-14-14-14-14-14-14-14-14-14-14-14-14-14-14-14-14-14-14-14-14-14-14-14-14-15-15-15-15-15-15-15-15-|
A|-------------------------------------------------------------------------------------------------|
F|-------------------------------------------------------------------------------------------------|
C|-------------------------------------------------------------------------------------------------|
G|-------------------------------------------------------------------------------------------------|
C|-------------------------------------------------------------------------------------------------| x2

D|-17-17-17-17-17-17-17-17-17-17-17-17-17-17-17-17-17-17-17-17-17-17-17-17-17-17-17-|
A|----------------------------------------------------------------------------------|
F|----------------------------------------------------------------------------------|
C|----------------------------------------------------------------------------------|
G|----------------------------------------------------------------------------------|
C|----------------------------------------------------------------------------------|

Coro:

D|------------------------------------------------------------------|
A|------------------------------------------------------------------|
F|------------------------------------------------------------------|
C|------------------------------------------------------------------|
G|-5--5-5-5-5-5-5-5-5-5-5-5-5-5-5-5-2--2-2-2-2-2-2-2-2-2-2-2-2-2-2--|
C|-5--5-5-5-5-5-5-5-5-5-5-5-5-5-5-5-2--2-2-2-2-2-2-2-2-2-2-2-2-2-2--|

D|------------------------------------------------------------------|
A|------------------------------------------------------------------|
F|------------------------------------------------------------------|
C|-4--4-4-4-4-4-4-4-4-4-4-4-4-4-4-4-7--7-7-7-7-7-7-7-7-7-7-7-7-7-7--|
G|-2--2-2-2-2-2-2-2-2-2-2-2-2-2-2-2-5--5-5-5-5-5-5-5-5-5-5-5-5-5-5--|
C|------------------------------------------------------------------| x2

D|-----------------|
A|-----------------|
F|-11----11----11--|
C|-9-----9-----9---|
G|-7-----7-----7---|
C|-----------------| x2


************************************
Добавлено: 08.10.2015
Другие материалы по этой песне:

Страница создана 08.10.2015
http://primanota.ru/sentencia-previa/promesas-chords.htm
Привет, Гость.
Предлагаем пройти революционный курс по гитаре.
Подарок от PrimaNota.Ru, забирай!