PrimaNota.ru - самый крупный в мире бесплатный архив песенных текстов, аккордов, табулатур и нот


Sentenced - Neverlasting - текст песни, бас-таба, видео

Регистрация Запомнить меня
Войти через:  Facebook Google Twitter Vk Yandex Mail.ru

Sentenced - Neverlasting - текст песни, бас-таба, видео

Печатать
Просмотров: 102
“Neverlasting” - Sentenced

Tune D, G, C, F

intro x2
|-------------------------------------------------------------------|
|-------------------------------------------------------------------|
|-4-4-4-4-4-4-4-4-4-4-4-4-4-4-4-4-----------------2-2-2-2-2-2-2-2-2-|
|---------------------------------0-0-0-0-0-0-0-0-------------------|

Verse
|--------------------------------------------------------------------|
|---------------------------------------------------4----2-----2-1---|
|-4-4-4-4-4-4-4-4-------------------2-2-2-2-2-2-2-2----------------2-|
|-----------------0-0-0-0-0-0-0-0-0------------------0-0---0-0-------|

|--------------------------------------------------------|
|--------------------------------------------------------|
|-4-4-4-4-4-4-4-4-------------------2-2-2-2---4-4-----2--|
|-----------------0-0-0-0-0-0-0-0-0---------------0-0----|

pre-chorus
|-----------------------------------------------------|
|-----------------------------------------------------|
|-4-4-4-4-4-4-4-4-------------------2-2-2-2---4-2-1---|
|-----------------0-0-0-0-0-0-0-0-0-------------------| x2

|---------------------------------------------------------|
|---------------------------------------------------------|
|---------------------------------------------------------|
|-5-5-5-5-5-5-5-5-5-5-4-4-4-4-4-4-4-4--4--2-2-2-2-5-5-5-5-|

Chorus
|---------------------------------------------------------|
|---------------------------------------------------------|
|---------------------------------------------2-2-2-2-2-2-|
|-4-4-4-4-4-4-4-4-4-4-4-4-4-4-4-0-0-0-0-0-0-0-------------|

after chorus 1
|-----------|
|-----------|
|--------2--|
|4-4-0-0----|

after chorus 1
|-----------------------|
|-----------------------|
|------2-2----------2-2-|
|-0-0------x-x-x-x------|

end solo
|-----------------------------------|
|-----------------------------------|
|-----------------------------------|
|-5-5-5-5-5-5-5-5-2-2-2-2-5-5-5-5-5-|
Добавлено: 18.08.2013
Другие материалы по этой песне:

Страница создана 24.02.2012
http://primanota.ru/sentenced/neverlasting-chords.htm
Привет, Гость.
Предлагаем пройти революционный курс по гитаре.
Подарок от PrimaNota.Ru, забирай!