PrimaNota.ru - самый крупный в мире бесплатный архив песенных текстов, аккордов, табулатур и нот


Sentenced - Nepenthe - аккорды и текст, таба, бас-таба, видео

Регистрация Запомнить меня
Войти через:  Facebook Google Twitter Vk Yandex Mail.ru

Sentenced - Nepenthe - аккорды и текст, таба, бас-таба, видео

Печатать
Просмотров: 124
Авторы музыки: Miika Tenkula, Sentenced
Авторы текста: Taneli Jarva
Nepenthe
Sentenced
Band : Sentenced
Song : Nepenthe
 
Tab by Sami Kyrцnlahti
Added By Mikhailo
___________________________________________________

 tune down 1/2 step
 
  INTRO
    Dm
eb|---------0h1-------------0h1---------------------------|
B |-3-----3---------3-----------3-----3-------------------| intro menee 
Gb|-2---2---------2-------2---------2---2-0---------------| jotenkin 
Db|-0-0---------0-----2-2---------2---------3-2-0----0-2--| nдin 
Ab|------------------------------------------------4------|
Eb|-------------------------------------------------------|
  |                                                        
  |-3-------3h5-------8-----6h8p8---5-6-5-3---------------|
  |-----------------------------------------6-5-3----3-5--|
  |------------------------------------------------6------|
  |-------------------------------------------------------|
  |-------------------------------------------------------|
  |-------------------------------------------------------|


|------------------------------------------------------------------|
|-3------3-----3---3-----3-----3---1-----1-----1---1-----1-----1---|
|------2-----2---2-----2-----2---2-----0-----0---0-----0-----0---0-| 2x
|----0-----0---------0-----0--------3-----3----------2-----2-------|
|------------------------------------------------------------------|
|------------------------------------------------------------------|


|------------------------------------3---------1-----|
|-1-----0h1-----3p1-----0h1----------3---------1-----|
|-2-----2-------2-------2------------0---------2-----|
|-2-2-------2-------2-------2--------------3---------|
|-0---0-------0-------0-------0--2-----2---3-----3---|
|----------------------------------3-----3-1-1-----1-|

|-------------------------------------------------|
|-1-----0h1-----3p1-----0h1-----------------------|
|-2-----2-------2-------2-------------------------|
|-2-2-------2-------2-------2-0---0---------3-----|
|-0---0-------0-------0---------3---3-2-3---------|
|-------------------------------------------------|

 rhy fig 1.
|----------------------------------------------------|
|-----------------------------6----------------------|
|-2--2-----3--3-----3-3-----5-7-----4--4-----4-4-----|
|-3--3-----3--3-----3-3-----7-7-----5--5-----5-5-----|
|------0-0------0-0-----0-0-----0-0------0-0-----0-0-|
|----------------------------------------------------|
                                    end rhy fig 1.
|---------------------------5--5-----3--3-----3-3-----|
|---------------------------6--6-----5--5-----5-5-----|
|-2--2-----3--3-----3-3-----7--7-----5--5-----5-5-----|
|-3--3-----3--3-----3-3-------------------------------|
|------0-0------0-0-----0-0------0-0------0-0-----0-0-|
|-----------------------------------------------------|
 
 rhy fig 2.
             B5         F5   C5              B5          C5
|--------------------------------|-----------------------------------|
|'-8h10p8-----------------------'|-8h10p8----------------------------|
|---------10-7-------7--10---9---|--------10-7-------10---9--10--12--|
|----------------8---------------|---------------8-------------------|
|'------------------------------'|-----------------------------------|
|--------------------------------|-----------------------------------|

 rhy fig 3. 
  D5               C5             B5 
|-------------------------------------------------|
|-------------------------------------------------|
|-2h3p2-0-2-------75-----53-----32-----2p0-----|
|-------------------------------------------------|
|-------------0-0-----0-0-----0-0-----0-0-----0-0-|
|-------------------------------------------------|
  D5               C5              B5        end rhy fig 3.
|------------------------------------------------------|
|------------------------------------------------------|
|-2h3p2-0-2-------7/9-----9/10-----10/12-----12/14-----|
|------------------------------------------------------|
|-------------0-0-----0-0------0-0-------0-0-------0-0-|
|------------------------------------------------------|

 rhy fig 4.
  A5                    G5   F5    A5                   G5    F5
|------------------------------------------------------------------|
|------------------------------------------------------------------|
|-2h3p2-0-2------------------------2h3p2-0-2-----------------------|
|------------------------------------------------------------------|
|--------------2--0--2--3/5--3--0--------------2--0--2--3/5--3--5--|
|------------------------------------------------------------------|

-rhy fig 3.

 fhy fig 5.
  A5                    G5   F5
|----------------------------------|
|----------------------------------|
|-2h3p2-0-2------------------------|
|----------------------------------|
|-------------2--0--2--3/5--3--0---|
|----------------------------------|
                                          end rhy fig 5.
|--------------------------------------------------------|
|--------------------------------------------------------|
|-2h3p2-0-2----------------------------------------------|
|-------------------------2--0-----0---------------3-----|
|-------------2--0--2--3--------3-----3--2--3------------|
|--------------------------------------------------------|

-solo w/rhy fig 1.
-rhy fig 2.

|---------------------------------|
|---------------------------------| jokaisen merkin kohdalla
|---------------------------------| 8 lyцniд
|-------------------------3-------| esim.
|-5---5---3---1---5---5-------3---|  5= 5-5-5-5-5-5-5-5-
|---------------------------------|

-rhy fig 4.
-rhy fig 3.
-rhy fig 5.
-intro
Добавлено: 05.05.2012
Другие материалы по этой песне:

Страница создана 19.03.2012
http://primanota.ru/sentenced/nepenthe-chords.htm
Привет, Гость.
Предлагаем пройти революционный курс по гитаре.
Подарок от PrimaNota.Ru, забирай!