PrimaNota.ru - самый крупный в мире бесплатный архив песенных текстов, аккордов, табулатур и нот


Sentenced - Luxury Of A Grave - текст песни, таба, видео

Регистрация Запомнить меня
Войти через:  Facebook Google Twitter Vk Yandex Mail.ru

Sentenced - Luxury Of A Grave - текст песни, таба, видео

Печатать
Просмотров: 96
                              Luxury of a Grave

THIS IS NOT MY WORK.  CREDIT GOES TO DEMEZRIEL AND THE TAB COMES FROM GUITAR PRO.  THIS 
JUST A GUIDELINE AS THIS TAB DOES NOT INCLUDE BOTH GUITARS, ONLY THE LEAD.  HOWEVER, THE 
SHOULD BE SELF EXPLANATORY.
                                                                       Sentenced
LEAD

E||-------|-------|-------|--------||-------|-------|-------|-------|
B||-------|-------|-------|--------||-------|-------|-------|-------|
G||-------|-------|-------|-------*||-------|-------|-------|-------|
D||-------|-------|-------|-------*||-------|-------|-------|-------|
A||-------|-------|-------|--------||-------|-------|-------|-------|
E||-------|-------|-------|--------||-------|-------|-------|-------|


  Q    Q     Q     Q         Q    E  E  Q    E  E     Q     Q     Q     Q
------------------------|--------------------------|--------------------------|
------------------------|--------------------------|--------------------------|
------------------------|--7g9----9--7--7----5--7--|--7~----5~----4~----5~----|
-------7~----9----10----|--------------------------|--------------------------|
------------------------|--------------------------|--------------------------|
------------------------|--------------------------|--------------------------|


  Q     Q     Q     E  E     H.            E  E     Q     Q    Q     E  E
--------------------------|----------------------|-------------------------|
--------------------------|----------------8--6--|--5~---------------------|
--4~----2~----------------|----------------------|----------------------5--|
--------------3~----5--3--|--2~------------------|--------7----9----10-----|
--------------------------|----------------------|-------------------------|
--------------------------|----------------------|-------------------------|


    SH
    E   S  S  E  Q     E  E  E     E   S S S  S E    E   E  E   S    S
--------------------------------|---------------------------------------|
--------------------------------|---------------------------------------|
--<>7b--7p-5h-7--5~-------5--7--|--7b--7-5-7p-5----<>5~--L--L--(5)S-(0)-|
-----------------------7--------|---------------7-----------------------|
--------------------------------|---------------------------------------|
--------------------------------|---------------------------------------|


  E  E  H        E  E     E  E  H        Q        E   E  H        E   E
-----------------------|----------------------|--------------------------|
-----------------------|----------------------|--------------------------|
-----------------------|----------------------|--------------------------|
--7--7--------------7--|-----7----------------|--10--10--------------10--|
--7--7--------------7--|-----7----------------|--10--10--------------10--|
--5--5-----------5--5--|-----5----------------|---8---8-----------8---8--|


  E   E  E  E    E   E  E   S  S    E  E  H        E  E
---------------------------------|-----------------------|
---------------------------------|-----------------------|
--------------------12-----------|-----------------------|
-----10-----9S--10------9--10p-9-|--7--7--------------7--|
-----10--------------------------|--7--7--------------7--|
------8--------------------------|--5--5-----------5--5--|


  E  E  H        Q        E   E  H        E   E     E   E  E   E  E  S S Q
----------------------|--------------------------|-----------------------------|
----------------------|--------------------------|-----------------------------|
----------------------|--------------------------|-----------------------------|
-----7----------------|--10--10--------------10--|-----10-----10---------------|
-----7----------------|--10--10--------------10--|-----10-----10-----7-7-7S----|
-----5----------------|---8---8-----------8---8--|------8------8-----5-5-5S----|


  PM PM                     PM PM                     PM PM
  E  E  E  E  E  E  Q       E  E  E  E  E  E  Q       E  E  E  E  E  E  Q
-------------------------|-------------------------|-------------------------|
-------------------------|-------------------------|-------------------------|
-------------------------|-------------------------|-------------------------|
--------3--3--3-----3----|--------7--7--7-----7----|--------5--5--5-----5----|
--------3--3--3-----3----|--------7--7--7-----7----|--------5--5--5-----5----|
--1--1--1--1--1--1--1----|--5--5--5--5--5--5--5----|--3--3--3--3--3--3--3----|


  PM PM
  E  E  E  E  E  E  Q       E  E  H        E  E     E  E  H        Q
-------------------------|-----------------------|----------------------|
-------------------------|-----------------------|----------------------|
-------------------------|-----------------------|----------------------|
--------5--5--5-----5----|--7--7--------------7--|-----7----------------|
--------5--5--5-----5----|--7--7--------------7--|-----7----------------|
--3--3--3--3--3--3--3----|--5--5-----------5--5--|-----5----------------|


   E   E  H        E   E     E   E  E  E    E   E  E   S  S
--------------------------|---------------------------------|
--------------------------|---------------------------------|
--------------------------|--------------------12-----------|
--10--10--------------10--|-----10-----9S--10------9--10p-9-|
--10--10--------------10--|-----10--------------------------|
---8---8-----------8---8--|------8--------------------------|


    SH
    E   E  H        E  E     E  E  H        Q        E   E  H        E   E
--------------------------|----------------------|--------------------------|
--------------------------|----------------------|--------------------------|
--------------------------|----------------------|--------------------------|
--<>7~--L--L-----------7--|-----7----------------|--10--10--------------10--|
-----------------------7--|-----7----------------|--10--10--------------10--|
--------------------5--5--|-----5----------------|---8---8-----------8---8--|


                                                 PM PM
   S  S  S  S  S  S  S  S  S  S  S  S S S E      E  E  E  E  E  E  Q
----------------------------------------------|-------------------------|
--13-10----10---------------------------------|-------------------------|
--------12----12-10-12-10----10---------------|-------------------------|
--------------------------12----12-10---------|--------3--3--3-----3----|
--------------------------------------7-7-7S--|--------3--3--3-----3----|
--------------------------------------5-5-5S--|--1--1--1--1--1--1--1----|


  PM PM                     PM PM                     PM PM
  E  E  E  E  E  E  Q       E  E  E  E  E  E  Q       E  E  E  E  E  E  Q
-------------------------|-------------------------|-------------------------|
-------------------------|-------------------------|-------------------------|
-------------------------|-------------------------|-------------------------|
--------7--7--7-----7----|--------5--5--5-----5----|--------5--5--5-----5----|
--------7--7--7-----7----|--------5--5--5-----5----|--------5--5--5-----5----|
--5--5--5--5--5--5--5----|--3--3--3--3--3--3--3----|--3--3--3--3--3--3--3----|


  PM PM                     PM PM
  E  E  E  E  E  E  Q       E  E   E   E   E  E   Q
-------------------------|-----------------------------|
-------------------------|-----------------------------|
-------------------------|-----------------------------|
--------3--3--3-----3----|--------10--10--10-----10----|
--------3--3--3-----3----|--------10--10--10-----10----|
--1--1--1--1--1--1--1----|--8--8---8---8---8--8---8----|


  PM PM
  E  E  E  E  E  E  E  E      E  E  E  S S E  S S E  E
---------------------------|----------------------------|
---------------------------|----------------------------|
---------------------------|----------------------------|
--------5--5--5-----5------|----------------------------|
--------5--5--5-----5------|--------5------5------5-----|
--3--3--3--3--3--3--3--4~--|--L--4-----4-4----4-4----4--|


  E  E  E  E  E  E  E  E      E   E   E   E   E   E   E   E
--------------------------|----------------------------------|
--------------------------|----------------------------------|
--------------------------|----------------------------------|
--------7-----------7-----|----------10--------------10------|
--7--7--7--7--7--7--7--7--|--10--10--10--10--10--10--10--10--|
--5--5--5--5--5--5--5--5--|---8---8---8---8---8---8---8---8--|


  E  E  E  E  E  E  E  E     E  E  E  E  E  E  E  E
--------------------------|--------------------------|
--------------------------|--------------------------|
--------------------------|--------------------------|
--------5-----------5-----|--------3-----------3-----|
--5--5--5--5--5--5--5--5--|--3--3--3--3--3--3--3--3--|
--3--3--3--3--3--3--3--3--|--1--1--1--1--1--1--1--1--|


  E  E  E  E  E  E  E  E      E   E   E   E   E   E   E   E
--------------------------|----------------------------------|
--------------------------|----------------------------------|
--------------------------|----------------------------------|
--------7-----------7-----|----------10--------------10------|
--7--7--7--7--7--7--7--7--|--10--10--10--10--10--10--10--10--|
--5--5--5--5--5--5--5--5--|---8---8---8---8---8---8---8---8--|


  E  E  E  E  E  E  E  E     E  E  S S E  S S E  S S E
--------------------------|-----------------------------|
--------------------------|-----------------------------|
--------------------------|-----7------7------7------7--|
--------5-----------5-----|-----7------7------7------7--|
--5--5--5--5--5--5--5--5--|--5--5--5-5-5--5-5-5--5-5-5--|
--3--3--3--3--3--3--3--3--|-----------------------------|


  E  E  E  E  E  E  E  E      E   E   E   E   E   E   E   E
--------------------------|----------------------------------|
--------------------------|----------------------------------|
--------------------------|----------------------------------|
--------7-----------7-----|----------10--------------10------|
--7--7--7--7--7--7--7--7--|--10--10--10--10--10--10--10--10--|
--5--5--5--5--5--5--5--5--|---8---8---8---8---8---8---8---8--|


  E  E  E  E  E  E  E  E     E  E  E  E  E  E  E  E
--------------------------|--------------------------|
--------------------------|--------------------------|
--------------------------|--------------------------|
--------5-----------5-----|--------3-----------3-----|
--5--5--5--5--5--5--5--5--|--3--3--3--3--3--3--3--3--|
--3--3--3--3--3--3--3--3--|--1--1--1--1--1--1--1--1--|


  E  E  E  S S E  E  E   E      E   E   E   E   E   E   E   E
----------------------------|----------------------------------|
----------------------------|----------------------------------|
----------------------------|----------------------------------|
--------7---------------10--|---L------10--------------10------|
--7--7--7--7-7-7--9-----10--|---L--10--10--10--10--10--10--10--|
--5--5--5--5-5-5--7------8--|---L---8---8---8---8---8---8---8--|


  E  E  E  E  E  E  E  E     E  E  Q    H           E  E  H        E  E
--------------------------|----------------------|-----------------------|
--------------------------|----------------------|-----------------------|
--------------------------|----------------------|-----------------------|
--------5--------5-----3--|-----3----------------|--7--7--------------7--|
--5--5--5--5--5--5--5--3--|-----3----------------|--7--7--------------7--|
--3--3--3--3--3--3--3--1--|-----1----------------|--5--5-----------5--5--|


  E  E  H        Q        E   E  H        E   E
----------------------|--------------------------|
----------------------|--------------------------|
----------------------|--------------------------|
-----7----------------|--10--10--------------10--|
-----7----------------|--10--10--------------10--|
-----5----------------|---8---8-----------8---8--|


                                      SH
  E   E  E  E    E   E  E   S  S      E   E  H        E  E
---------------------------------|--------------------------|
---------------------------------|--------------------------|
--------------------12-----------|--------------------------|
-----10-----9S--10------9--10p-9-|--<>7~--L--L-----------7--|
-----10--------------------------|-----------------------7--|
------8--------------------------|--------------------5--5--|


  E  E  H        Q        E   E  H        E   E
----------------------|--------------------------|
----------------------|--------------------------|
----------------------|--------------------------|
-----7----------------|--10--10--------------10--|
-----7----------------|--10--10--------------10--|
-----5----------------|---8---8-----------8---8--|


                                                 PM PM
   S  S  S  S  S  S  S  S  S  S  S  S S S E      E  E  E  E  E  E  Q
----------------------------------------------|-------------------------|
--13-10----10---------------------------------|-------------------------|
--------12----12-10-12-10----10---------------|-------------------------|
--------------------------12----12-10---------|--------3--3--3-----3----|
--------------------------------------7-7-7S--|--------3--3--3-----3----|
--------------------------------------5-5-5S--|--1--1--1--1--1--1--1----|


  PM PM                     PM PM                     PM PM
  E  E  E  E  E  E  Q       E  E  E  E  E  E  Q       E  E  E  E  E  E  Q
-------------------------|-------------------------|-------------------------|
-------------------------|-------------------------|-------------------------|
-------------------------|-------------------------|-------------------------|
--------7--7--7-----7----|--------5--5--5-----5----|--------5--5--5-----5----|
--------7--7--7-----7----|--------5--5--5-----5----|--------5--5--5-----5----|
--5--5--5--5--5--5--5----|--3--3--3--3--3--3--3----|--3--3--3--3--3--3--3----|


  PM PM                     PM PM
  E  E  E  E  E  E  Q       E  E   E   E   E  E   Q
-------------------------|-----------------------------|
-------------------------|-----------------------------|
-------------------------|-----------------------------|
--------3--3--3-----3----|--------10--10--10-----10----|
--------3--3--3-----3----|--------10--10--10-----10----|
--1--1--1--1--1--1--1----|--8--8---8---8---8--8---8----|


  PM PM
  E  E  E  E  E  E  E  E      E  E  E  S S E  S S E  E
---------------------------|----------------------------|
---------------------------|----------------------------|
---------------------------|----------------------------|
--------5--5--5-----5------|----------------------------|
--------5--5--5-----5------|--------5------5------5-----|
--3--3--3--3--3--3--3--4~--|--L--4-----4-4----4-4----4--|


  E  E  E  E  E  E  E  E      E   E   E   E   E   E   E   E
--------------------------|----------------------------------|
--------------------------|----------------------------------|
--------------------------|----------------------------------|
--------7-----------7-----|----------10--------------10------|
--7--7--7--7--7--7--7--7--|--10--10--10--10--10--10--10--10--|
--5--5--5--5--5--5--5--5--|---8---8---8---8---8---8---8---8--|


  E  E  E  E  E  E  E  E     E  E  E  E  E  E  E  E
--------------------------|--------------------------|
--------------------------|--------------------------|
--------------------------|--------------------------|
--------5-----------5-----|--------3-----------3-----|
--5--5--5--5--5--5--5--5--|--3--3--3--3--3--3--3--3--|
--3--3--3--3--3--3--3--3--|--1--1--1--1--1--1--1--1--|


  E  E  E  E  E  E  E  E      E   E   E   E   E   E   E   E
--------------------------|----------------------------------|
--------------------------|----------------------------------|
--------------------------|----------------------------------|
--------7-----------7-----|----------10--------------10------|
--7--7--7--7--7--7--7--7--|--10--10--10--10--10--10--10--10--|
--5--5--5--5--5--5--5--5--|---8---8---8---8---8---8---8---8--|


  E  E  E  E  E  E  E  E     E  E  S S E  S S E  S S E
--------------------------|-----------------------------|
--------------------------|-----------------------------|
--------------------------|-----7------7------7------7--|
--------5-----------5-----|-----7------7------7------7--|
--5--5--5--5--5--5--5--5--|--5--5--5-5-5--5-5-5--5-5-5--|
--3--3--3--3--3--3--3--3--|-----------------------------|


  E  E  E  E  E  E  E  E      E   E   E   E   E   E   E   E
--------------------------|----------------------------------|
--------------------------|----------------------------------|
--------------------------|----------------------------------|
--------7-----------7-----|----------10--------------10------|
--7--7--7--7--7--7--7--7--|--10--10--10--10--10--10--10--10--|
--5--5--5--5--5--5--5--5--|---8---8---8---8---8---8---8---8--|


  E  E  E  E  E  E  E  E     E  E  E  E  E  E  E  E
--------------------------|--------------------------|
--------------------------|--------------------------|
--------------------------|--------------------------|
--------5-----------5-----|--------3-----------3-----|
--5--5--5--5--5--5--5--5--|--3--3--3--3--3--3--3--3--|
--3--3--3--3--3--3--3--3--|--1--1--1--1--1--1--1--1--|


  E  E  E  S S E  E  E   E      E   E   E   E   E   E   E   E
----------------------------|----------------------------------|
----------------------------|----------------------------------|
----------------------------|----------------------------------|
--------7---------------10--|---L------10--------------10------|
--7--7--7--7-7-7--9-----10--|---L--10--10--10--10--10--10--10--|
--5--5--5--5-5-5--7------8--|---L---8---8---8---8---8---8---8--|


  E  E  E  E  E  E  E  E     S S E  S S E  S S E  S S E
--------------------------|------------------------------|
--------------------------|------------------------------|
--------------------------|------7------7------7------7--|
--------5-----------5-----|------7------7------7------7--|
--5--5--5--5--5--5--5--5--|--5-5-5--5-5-5--5-5-5--5-5-5--|
--3--3--3--3--3--3--3--3--|------------------------------|


  PM PM                     PM PM
  E  E  E  E  E  E  Q       E  E  E  E  E  E  Q       S  S Q    Q    Q    E
-------------------------|-------------------------|-------------------------|
-------------------------|-------------------------|-------------------------|
-------------------------|-------------------------|--7S-9-7----5----4----5--|
--------3--3--L--3--3----|--------3--3--L--3--3----|-------------------------|
--------3--3--L--3--3----|--------3--3--L--3--3----|-------------------------|
--1--1--1--1--L--1--1----|--1--1--1--1--L--1--1----|-------------------------|


                         PM PM                     PM PM
  E  Q    H        E     E  E  E  E  E  E  Q       E  E  E  E  E  E  Q
----------------------|-------------------------|-------------------------|
----------------------|-------------------------|-------------------------|
--L--4----2-----------|-------------------------|-------------------------|
----------------------|--------5--5--L--5--5----|--------5--5--L--5--5----|
----------------------|--------5--5--L--5--5----|--------5--5--L--5--5----|
----------------------|--3--3--3--3--L--3--3----|--3--3--3--3--L--3--3----|


  E  E  E  E  E  E  E  E
--------------------------|-----|-----|-----|-----|-----|-----|-----|-----|
--------------------------|-----|-----|-----|-----|-----|-----|-----|-----|
--------------------------|-----|-----|-----|-----|-----|-----|-----|-----|
--3--3--3--3--3--3--3--5--|-----|-----|-----|-----|-----|-----|-----|-----|
--3--3--3--3--3--3--3--5--|-----|-----|-----|-----|-----|-----|-----|-----|
--1--1--1--1--1--1--1--3--|-----|-----|-----|-----|-----|-----|-----|-----|


  H        Q    E   S  S     Q     E  H         E     H        Q     E  E
-------------------------|-------------------------|-----------------------|
-------------------12-13-|--12---------------------|-----------------------|
-------------------------|--------14--9~--------L--|--L--------7b----5-----|
-------------------------|-------------------------|--------------------7--|
-------------------------|-------------------------|-----------------------|
-------------------------|-------------------------|-----------------------|


  Q     E   H         E     H        Q    E   S  S     Q     E  H         E
-------------------------|-------------------------|-------------------------|
-------------------------|-------------------12-13-|--12---------------------|
--5~----5S--7~--------L--|-------------------------|--------14--9~--------L--|
-------------------------|-------------------------|-------------------------|
-------------------------|-------------------------|-------------------------|
-------------------------|-------------------------|-------------------------|


  H        Q     E  E     Q    H         E  E     Q    E  H         S  S
-----------------------|-----------------------|-------------------------|
-----------------------|-----------------------|-------------------12-13-|
--L--------7b----5-----|--5----4~--------4--5--|--4----2--4--------------|
--------------------7--|-----------------------|-------------------------|
-----------------------|-----------------------|-------------------------|
-----------------------|-----------------------|-------------------------|


   Q     E  H         E     H        E  E  E  E      Q    H        E  E
-------------------------|------------------------|----------------------|
--12---------------------|------------------------|----------------------|
--------14--9~--------L--|--L--------7--5--5--5h--|--7----L--------L--L--|
-------------------------|------------------------|----------------------|
-------------------------|------------------------|----------------------|
-------------------------|------------------------|----------------------|


  H        Q    E   S  S     E   S   S  E   S   S  E   E   E   E
-------------------------|-----------------------------------------|
-------------------12-13-|--12--13p-12-----13p-12-----12--13--12~--|
-------------------------|-------------14---------14---------------|
-------------------------|-----------------------------------------|
-------------------------|-----------------------------------------|
-------------------------|-----------------------------------------|


  E   E   E  E   E  E  Q       E  E  E    E  E  E  E  E
----------------------------|----------------------------|
--L--12---------------------|----------------------------|
---------14--9~--L--L--L----|----------------------------|
----------------------------|----------------------------|
----------------------------|-----2-----2g3-----2-----0--|
----------------------------|--3-----3-------3-----3-----|


  E  E  E    E  E  E  E  E     E  E  E  E  E  E  E  E
----------------------------|--------------------------|
----------------------------|--------------------------|
----------------------------|--------------------------|
----------------------------|--------7-----------7-----|
-----0-----0g1-----0--------|--7--7--7--7--7--7--7--7--|
--1-----1-------1-----1--3--|--5--5--5--5--5--5--5--5--|


   E   E   E   E   E   E   E   E     E  E  E  E  E  E  E  E
----------------------------------|--------------------------|
----------------------------------|--------------------------|
----------------------------------|--------------------------|
----------10--------------10------|--------5-----------5-----|
--10--10--10--10--10--10--10--10--|--5--5--5--5--5--5--5--5--|
---8---8---8---8---8---8---8---8--|--3--3--3--3--3--3--3--3--|


  E  E  E  E  E  E  E  E     E  E  E  E  E  E  E  E
--------------------------|--------------------------|
--------------------------|--------------------------|
--------------------------|--------------------------|
--------3-----------3-----|--------7-----------7-----|
--3--3--3--3--3--3--3--3--|--7--7--7--7--7--7--7--7--|
--1--1--1--1--1--1--1--1--|--5--5--5--5--5--5--5--5--|


   E   E   E   E   E   E   E   E     E  E  E  E  E  E  E  E
----------------------------------|--------------------------|
----------------------------------|--------------------------|
----------------------------------|--------------------------|
----------10--------------10------|--------5-----------5-----|
--10--10--10--10--10--10--10--10--|--5--5--5--5--5--5--5--5--|
---8---8---8---8---8---8---8---8--|--3--3--3--3--3--3--3--3--|


  S S E  S S E  S S E  S S E     E  E  E  E  E  E  E  E
------------------------------|--------------------------|
------------------------------|--------------------------|
------7------7------7------7--|--------------------------|
------7------7------7------7--|--------7-----------7-----|
--5-5-5--5-5-5--5-5-5--5-5-5--|--7--7--7--7--7--7--7--7--|
------------------------------|--5--5--5--5--5--5--5--5--|


   E   E   E   E   E   E   E   E     E  E  E  E  E  E  E  E
----------------------------------|--------------------------|
----------------------------------|--------------------------|
----------------------------------|--------------------------|
----------10--------------10------|--------5-----------5-----|
--10--10--10--10--10--10--10--10--|--5--5--5--5--5--5--5--5--|
---8---8---8---8---8---8---8---8--|--3--3--3--3--3--3--3--3--|


  E  E  E  E  E  E  E  E     E  E  E  S S E  E  E   E
--------------------------|----------------------------|
--------------------------|----------------------------|
--------------------------|----------------------------|
--------3-----------3-----|--------7---------------10--|
--3--3--3--3--3--3--3--3--|--7--7--7--7-7-7--9-----10--|
--1--1--1--1--1--1--1--1--|--5--5--5--5-5-5--7------8--|


   E   E   E   E   E   E   E   E     E  E  E  E  E  E  E  E
----------------------------------|--------------------------|
----------------------------------|--------------------------|
----------------------------------|--------------------------|
---L------10--------------10------|--------5-----------5-----|
---L--10--10--10--10--10--10--10--|--5--5--5--5--5--5--5--5--|
---L---8---8---8---8---8---8---8--|--3--3--3--3--3--3--3--3--|


  S S E  S S E  S S E  S S E      S  S  Q     E  Q     E   E
------------------------------|-------------------------------|
------------------------------|--12-13-12-------------12--13--|
------7------7------7------7--|--------------14--9------------|
------7------7------7------7--|-------------------------------|
--5-5-5--5-5-5--5-5-5--5-5-5--|-------------------------------|
------------------------------|-------------------------------|


   Q     E   E  Q    E  E     E   E  E  H.
---------------------------|--------------------------|
--12----12-----------------|--------------------------|
------------14--9----5--5--|--5S--7--7--7~------------|
---------------------------|--------------------------|
---------------------------|--------------------------|
---------------------------|--------------------------|


  H        Q    E   S  S     Q     E  Q     E   E   E
-------------------------|-----------------------------|
-------------------12-13-|--12-------------12--13--12--|
-------------------------|--------14--9----------------|
-------------------------|-----------------------------|
-------------------------|-----------------------------|
-------------------------|-----------------------------|


                              |--3--|
  E   E   E  Q    E  E  E     S  S  S  Q     Q    E  E  E
---------------------------|--------------------------------|
--L--12--------------------|--------------------------------|
---------14--9----5--7--5--|--5h-7p-5S-4~----L----4--0--2~--|
---------------------------|--------------------------------|
---------------------------|--------------------------------|
---------------------------|--------------------------------|


  H        Q    E   S  S     Q     E  Q     E   E   E
-------------------------|-----------------------------|
-------------------12-13-|--12-------------12--13--12--|
-----------L-------------|--------14--9----------------|
-------------------------|-----------------------------|
-------------------------|-----------------------------|
-------------------------|-----------------------------|


  E   E   E  Q    E  E  E     Q    H.               H        Q    E   S  S
---------------------------|---------------------|-------------------------|
--L--12--------------------|---------------------|-------------------12-13-|
---------14--9----7--5--L--|--5----7~------------|-----------L-------------|
---------------------------|---------------------|-------------------------|
---------------------------|---------------------|-------------------------|
---------------------------|---------------------|-------------------------|


   Q     E  Q     E   E   E     E   E   E  Q    E  E  E
-----------------------------|---------------------------|
--12-------------12--13--12--|--L--12--------------------|
--------14--9----------------|---------14--9----5--7--5--|
-----------------------------|---------------------------|
-----------------------------|---------------------------|
-----------------------------|---------------------------|


  |--3--|
  S  S  S  Q     Q.     E  E     Q     E  E  Q     E  E     W
------------------------------|--------------------------|-------------------|
------------------------------|--------------------------|-------------------|
--5h-7p-5S-4~----L------4--0--|--------------------------|-------------------|
------------------------------|--3~----2--0--------------|--7----------------|
------------------------------|--------------3~----2-----|--7----------------|
------------------------------|-----------------------3--|--5----------------|


-------------------|-------------------|-------------------||
-------------------|-------------------|-------------------||
-------------------|-------------------|-------------------||
-------------------|-------------------|-------------------||
-------------------|-------------------|-------------------||
-------------------|-------------------|-------------------||


Duration Legend
---------------
W - whole
H - half
Q - quarter
E - 8th
S - 16th
T - 32nd
X - 64th
. - note dotted
|-n-|  - n-tuplets


Tablature Legend
----------------
L - tied note
x - dead note
g - grace note
(n) - ghost note
> - accentuded note
NH - natural harmonic
AH - artificial harmonic
TH - tapped harmonic
SH - semi harmonic
PH - pitch harmonic
h - hammer on
p - pull off
b - bend
br - bendRelease
pb - preBend
pbr - preBendRelease
brb - bendReleaseBend
\n/ - tremolo bar dip
\n - tremolo bar dive
-/n - tremolo bar Release up
/n\ - tremolo bar inverted dip
/n - tremolo bar return
-\n - tremolo bar Release down
S - shift slide
s - legato slide
/ -  slide into from below or out of upwards
\ -  slide into from above or out of downwards
~ - vibrato
W - wide vibrato
tr - trill
TP - tremolo picking
T - tapping
S - slap
P - pop
< - fade in
^ - brush up
v - brush down
Добавлено: 03.09.2013
Другие материалы по этой песне:

Страница создана 30.05.2012
http://primanota.ru/sentenced/luxury-of-a-grave-chords.htm
Привет, Гость.
Предлагаем пройти революционный курс по гитаре.
Подарок от PrimaNota.Ru, забирай!