PrimaNota.ru - самый крупный в мире бесплатный архив песенных текстов, аккордов, табулатур и нот


Sentenced - Brief Is The Light - текст песни, бас-таба, видео

Регистрация Запомнить меня
Войти через:  Facebook Google Twitter Vk Yandex Mail.ru

Sentenced - Brief Is The Light - текст песни, бас-таба, видео

Печатать
Просмотров: 94
Brief Is the Light

Tune D, G, C, F

|------------------------------------------------------------------------------------------------|
|------------------------------------------------------------------------------------------------|
|--------------3-3-3-3-3-3-3-3-3-3-3-3-3-3-3-3-2-2-2-2-2-2-2-2-2-2-2-2-2-2-2-2-2-3-3-3-3-3-3-3-3-|
|-2-2-2-2-2-2------------------------------------------------------------------------------------|

|-------------------------------------------------|
|-------------------------------------------------|
|-0-0-0-0-0-0-0-0-2-2-2-2-2-2-2-2---2-3-2-3-2-----|
|---------------------------------5-----------5-3-|

|----------------------------------------------------------------------------------|
|----------------------------------------------------------------------------------|
|--3-3-3-3-3-3-3-3-3-3-3-3-3-3-3-3-2-2-2-2-2-2-2-2-2-2-2-2-2-2-2-2-2-3-3-3-3-3-3---|
|----------------------------------------------------------------------------------|

-------------------|
-------------------|
3-3-0-0-0-0-0-0----|
---------------2-2-|


Verse (im not sure)
|-
|-
|-
|-

Chorus x2
|---------------------------------------------------------------------|
|-----------------------------------------------------0-0-0-0-0-0-0-0-|
|-------------------0-0-0-0-0-0-0-0-0-3-3-3-3-3-3-3-3-----------------|
|-0-0-0-0-0-0-0-0-0---------------------------------------------------|

|---------------------------------------------------------------------|
|---------------------------------------------------------------------|
|-------------------0-0-0-0-0-0-0-0-0---------------------------------|
|-0-0-0-0-0-0-0-0-0-------------------3-3-3-3-3-3-3-3-2-2-2-2-2-2-2-2-|

After Chorus
|-------------------------------------------------|
|-------------------------------------------------|
|-----------------3-3-3-3-3-3-3-3-3-3-3-3-3-3-3-3-|
|-2-2-2-2-2-2-2-2---------------------------------|

Verse

Chorus

After Chorus 2
|-----------------|
|-----------------|
|-----------------|
|-2-2-2-2-2-2-2-2-|

Solo
|-------------------------------------------------------------------|
|-------------------------------------------------------------------|
|-3-3-3-3-3-3-3-3-3-3-3-3-3-3-3-3-3---------------------------------|
|-----------------------------------0-0-0-0-0-0-0-0-0-0-0-0-0-0-0-0-|

|-------------------------------------------------------------------|
|-------------------------------------------------------------------|
|-3-3-3-3-3-3-3-3-3-0-0-0-0-0-0-0-0---------------------------------|
|-----------------------------------0-0-0-0-0-0-0-0-0-0-0-0-0-0-0-0-|

Repeat Bar 1

|-----------------------------------|
|-----------------------------------|
|-3-3-3-3-3-3-3-3-3-----------------|
|-------------------5-5-5-5-5-5-3-5-|

Chorus

Outro

|-------------------------------------------------------------------|
|-------------------------------------------------------------------|
|-3-3-3-3-3-3-3-3-3-3-3-3-3-3-3-3-3---------------------------------|
|-----------------------------------0-0-0-0-0-0-0-0-0-0-0-0-0-0-0-0-|

|-------------------------------------------------------------------|
|-------------------------------------------------------------------|
|-3-3-3-3-3-3-3-3-3-0-0-0-0-0-0-0-0-------------------2-3-2-3-2-----|
|-----------------------------------0-0-0-0-0-0-0-0-5-----------5-3-|

Repeat Bar 1

|------------------------------------|
|------------------------------------|
|-3-3-3-3-3-3-3-3-0-0-0-0-0-0-0-0----|
|---------------------------------0~-|
Добавлено: 16.11.2013
Другие материалы по этой песне:
  • Аккорды и текст

Страница создана 25.04.2012
http://primanota.ru/sentenced/brief-is-the-light-chords.htm
Привет, Гость.
Предлагаем пройти революционный курс по гитаре.
Подарок от PrimaNota.Ru, забирай!