PrimaNota.ru - самый крупный в мире бесплатный архив песенных текстов, аккордов, табулатур и нот


Sent By Ravens - True Bride - таба, видео

Регистрация Запомнить меня
Войти через:  Facebook Google Twitter Vk Yandex Mail.ru

Sent By Ravens - True Bride - таба, видео

Печатать
Просмотров: 87
-------------------------------------------------------------------------------
                             TRUE BRIDE - Sent By Ravens
-------------------------------------------------------------------------------
Tabbed by: S.Perreira

Tuning: Drop C#

--

RHYTHM GUITAR section

INTRO/VERSE 1 & 2
D#|-----------------|------------------|-----------------|------------------|
A#|-----------------|------------------|-----------------|------------------|
F#|-----------------|------------------|-----------------|------------------|
C#|------3-0----0---|------0-------0---|------3-0----0---|------0-------7---|
G#|----5------5---5-|----1-------3---3-|----5------5---5-|----1-------8---8-|
C#|--5--------------|--1-----1/3-------|--5--------------|--1-----1/8-------|


PRE-CHORUS 1
D#|------------------------|-----------------|-----------------|
A#|------------------------|-----------------|-----------------|
F#|------------------------|-----------------|-----------------|
C#|------------------------|-----------------|-----------------|
G#|--3~~~~~~~~~~~~~~--3----|--5--5-5-5-5-5-5-|--5-5-5-5-5-5----|
C#|--1~~~~~~~~~~~~~~--1----|--3--3-3-3-3-3-3-|--3-3-3-3-3-3----|


CHORUS
D#|----------------|----------------|----------------|------------------|
A#|----------------|----------------|----------------|------------------|
F#|----------------|----------------|----------------|------------------|
C#|--3--3--3-3-3-3-|----------------|----------------|------------------|
G#|--x--x--x-x-x-x-|----5-5-5-5-5-5-|--3--3--3-3-3-3-|----5-5-5-5---5---|
C#|--5--5--5-5-5-5-|----3-3-3-3-3-3-|--1--1--1-1-1-1-|----3-3-3-3---3---|

D#|----------------|----------------|----------------|------------------|
A#|----------------|----------------|----------------|------------------|
F#|----------------|----------------|----------------|------------------|
C#|--3--3--3-3-3-3-|----------------|----------------|----3-------------|
G#|--x--x--x-x-x-x-|----5-5-5-5-5-5-|--3--3--3-3-3-3-|------5-1-3-5-----|
C#|--5--5--5-5-5-5-|----3-3-3-3-3-3-|--1--1--1-1-1-1-|--------------3-5-|


POST-CHORUS 1/PRE-VERSE 2
D#|-----------------|------------------|-----------------|-----------------|
A#|-----------------|------------------|-----------------|-----------------|
F#|-----------------|------------------|-----------------|-----------------|
C#|------3-0----0---|------0-------0---|------3-0----0---|------0-3/5~~~~--|
G#|----5------5---5-|----1-------3---3-|----5------5---5-|----1------------|
C#|--5--------------|--1-----1/3-------|--5--------------|--1--------------|


VERSE 2 (SAME AS VERSE 1)


PRE-CHORUS 2
D#|-----------------|-----------------|-----------------|-----------------|
A#|-----------------|-----------------|-----------------|-----------------|
F#|-----------------|-----------------|-----------------|-----------------|
C#|-----------------|-----------------|-----------------|-----------------|
G#|--3--------------|------------3----|--5--------------|-----------------|
C#|--1--------------|------------1----|--3--------------|-----------------|

D#|-----------------|-----------------|-----------------|-----------------|
A#|-----------------|-----------------|-----------------|-----------------|
F#|-----------------|-----------------|-----------------|-----------------|
C#|-----------------|-----------------|-----------------|-----------------|
G#|--3--------------|------------3----|--5--5-5-5-5-5-5-|--5-5-5-5-5-5-5--|
C#|--1--------------|------------1----|--3--3-3-3-3-3-3-|--3-3-3-3-3-3-3--|


CHORUS x2


PRE-BRIDGE
D#|--------[--3--]-----------|----------------------|
A#|---------M-M-M------------|----------------------|
F#|----------------.---.-----|----------------------|
C#|--4---4---------4---4---4-|----4-----------------|
G#|--0---0---------0---0---0-|----0--0-0-----0--0-0-|
C#|--0---0--0-0-0--0---0---0-|----0--0-0-----0--0-0-|


BRIDGE A
D#|--------[--3--]-----------|---------------------|
A#|---------M-M-M------------|----M--M-M-----M-M-M-|
F#|--------------------------|---------------------|
C#|----------------.---.-----|---------------------|
G#|--3---3---------3---3---3-|----3--3-3---3-3-3-3-|
C#|--1---1--1-1-1--1---1---1-|----1--1-1---1-1-1-1-|

D#|--------[--3--]-----------|---------------------|
A#|---------M-M-M------------|----M--M-M-----M-M-M-|
F#|--------------------------|---------------------|
C#|----------------.---.-----|---------------------|
G#|--5---5---------5---5---5-|----5--5-5---5-5-5-5-|
C#|--3---3--3-3-3--3---3---3-|----3--3-3---3-3-3-3-|

D#|--------[--3--]-----------|---------------------|
A#|---------M-M-M------------|----M--M-M-----M-M-M-|
F#|--------------------------|---------------------|
C#|----------------.---.-----|---------------------|
G#|--8---8---------8---8---8-|----8--8-8---8-8-8-8-|
C#|--5---5--5-5-5--5---5---5-|----5--5-5---5-5-5-5-|

D#|--------[--3--]-----------|---------------------|
A#|---------M-M-M------------|----M--M-M-----M-M-M-|
F#|--------------------------|---------------------|
C#|--------------------------|---------------------|
G#|--9---9---------9---9---9-|----9--9-9---9-9-9-9-|
C#|--0---0--0-0-0--0---0---0-|----0--0-0---0-0-0-0-|

BRIDGE B
D#|-----------------|----------------|-----------------|-------------------|
A#|-------M---------|----------M-M-M-|-------M---------|-------------------|
F#|-----------------|----------------|-----------------|-------------------|
C#|---------.--.----|----------------|---------.--.----|-------------------|
G#|--3--3---3--3--3-|--3-3---3-3-3-3-|--5--5---5--5--5-|--5--5-5---5-------|
C#|--1--1-1-1--1--1-|--1-1---1-1-1-1-|--3--3-3-3--3--3-|--3--3-3---3-4-4~~-|


CHORUS 3A
D#|---------------|---------------|------------------|------------------|
A#|---------------|---------------|------------------|------------------|
F#|---------------|---------------|------------------|------------------|
C#|---------------|---------------|------------------|------------------|
G#|--8~~~~~~~~----|---------------|--3-3-3-3-3-3-3-3-|--3-5-5-5-5-5-5-5-|
C#|--5~~~~~~~~----|---------------|--1-1-1-1-1-1-1-1-|--1-3-3-3-3-3-3-3-|

D#|------------------|------------------|------------------|------------------|
A#|------------------|------------------|------------------|------------------|
F#|------------------|------------------|------------------|------------------|
C#|--3-3-3-3-3-3-3-3-|------------------|------------------|------------------|
G#|--x-x-x-x-x-x-x-x-|--5-5-5-5-5-5-5-5-|--3-3-3-3-3-3-3-3-|--5-5-5-5-5---5---|
C#|--5-5-5-5-5-5-5-5-|--3-3-3-3-3-3-3-3-|--1-1-1-1-1-1-1-1-|--3-3-3-3-3---3---|

CHORUS 3B (SAME AS CHORUS)

CHORUS 3C/OUTRO
D#|----------------|----------------|----------------|------------------|
A#|----------------|----------------|----------------|------------------|
F#|----------------|----------------|----------------|------------------|
C#|--3--3--3-3-3-3-|----------------|----------------|------------------|
G#|--x--x--x-x-x-x-|----5-5-5-5-5-5-|--3--3--3-3-3-3-|----5-5-5-5---5---|
C#|--5--5--5-5-5-5-|----3-3-3-3-3-3-|--1--1--1-1-1-1-|----3-3-3-3---3---|

D#|----------------|----------------|----------------|------------------|
A#|----------------|----------------|----------------|------------------|
F#|----------------|----------------|----------------|------------------|
C#|--3--3--3-3-3-3-|----------------|----------------|----3-------------|
G#|--x--x--x-x-x-x-|----5-5-5-5-5-5-|--3--3--3-3-3-3-|------5-1-3-5-----|
C#|--5--5--5-5-5-5-|----3-3-3-3-3-3-|--1--1--1-1-1-1-|--------------3-5-|

D#|----------------|
A#|----------------|
F#|----------------|
C#|----------------|
G#|----------------|
C#|--5~~~~~~~~-----|


--

LEAD GUITAR section


VERSE 1 (pre-bend the 8 full step to 10, then release back to 8)
D#|-----------------|------------------|-----------------|------------------|
A#|--8b10~~~~~~~~~~-|--r8--------------|-----------------|------------------|
F#|-----------------|-------------5--5-|--5/7~~~~~~~~----|------------------|
C#|-----------------|------------------|-----------------|------------------|
G#|-----------------|------------------|-----------------|------------------|
C#|-----------------|------------------|-----------------|------------------|

D#|-----------------|------------------|-----------------|-------------------------|
A#|--8b10~~~~~~~~~~-|--r8-----------11-|--11~~~~~~~~~----|----11-11-11-11-10-------|
F#|-----------------|------------------|-----------------|-------------------10----|
C#|-----------------|------------------|-----------------|----------------------10-|
G#|-----------------|------------------|-----------------|-------------------------|
C#|-----------------|------------------|-----------------|-------------------------|


PRE-CHORUS
D#|------------------------|-----------------|-----------------|
A#|------------------------|-----------------|-----------------|
F#|------------------------|-----------------|-----------------|
C#|------------------------|-----------------|-----------------|
G#|--3~~~~~~~~~~~~~~--3----|--5--5-5-5-5-5-5-|--5-5-5-5-5-5----|
C#|--1~~~~~~~~~~~~~~--1----|--3--3-3-3-3-3-3-|--3-3-3-3-3-3----|


CHORUS
D#|-----------------|----5-5-5-6-6-5-5-|-----------------|------------------|
A#|--8--8-8-8-8-8-8-|--8-6-6-6-6-6-6-6-|--4--4-4-4-4-4-4-|--4-6-6-6-6-6-6-6-|
F#|--7--7-7-7-7-7-7-|--7-5-5-5-5-5-5-5-|--3--3-3-3-3-3-3-|--3-5-5-5-5-5-5-5-|
C#|-----------------|------------------|-----------------|------------------|
G#|-----------------|------------------|-----------------|------------------|
C#|-----------------|------------------|-----------------|------------------| x2


POST-CHORUS/PRE-VERSE 2
D#|------------------|------------------|----------------1-|--3~~~~---1~~~~---|
A#|------------------|------------------|--------------1---|------------------|
F#|--2h3p2-0---------|------------------|----------2h3-----|------------------|
C#|------------------|------------------|------------------|------------------|
G#|------------------|---------0~~~~----|------------------|------------------|
C#|------------------|------------------|--5~~~~-----------|------------------|


VERSE 2
D#|--------1~~~~-----|---------1~~~~----|------------------|------------------|
A#|------1-----------|------------------|--3~~~~~~~~-------|------------------|
F#|--2h3-------------|------------------|------------------|------------------|
C#|------------------|------------------|------------------|------------------|
G#|------------------|------------------|------------------|------------------|
C#|------------------|------------------|------------------|------------------|

D#|--------1~~~~-----|---------1~~~~----|--3~~~~~~~~-------|----6-6-6-6-5-----|
A#|------1-----------|------------------|------------------|--------------8-8-|
F#|--2h3-------------|------------------|------------------|------------------|
C#|------------------|------------------|------------------|------------------|
G#|------------------|------------------|------------------|------------------|
C#|------------------|------------------|------------------|------------------|


PRE-CHORUS 2
D#|--M-M-M-M-M-M-M-M-|--M-M-M-M-M-M-M-M-|--M-M-M-M-M-M-M-M-|--M-M-M-M-M-------|
A#|------------------|------------------|------------------|------------6-6-6-|
F#|--3-3-3-3-3-3-3-3-|--3-3-3-3-2-2-2-2-|--5-5-5-5-5-5-5-5-|--5-5-5-5-5-------|
C#|------------------|------------------|------------------|------------------|
G#|------------------|------------------|------------------|------------------|
C#|------------------|------------------|------------------|------------------|

D#|--M-M-M-M-M-M-M-M-|--M-M-M-M-M-M-M-M-|------------------|------------------|
A#|------------------|------------------|--6-6-6-6-6-6-6-6-|--6-6-6-6-6-6-----|
F#|--3-3-3-3-3-3-3-3-|--2-2-2-2-2-2-2-2-|--5-5-5-5-5-5-5-5-|--5-5-5-5-5-5-----|
C#|------------------|------------------|------------------|------------------|
G#|------------------|------------------|------------------|------------------|
C#|------------------|------------------|------------------|------------------|


CHORUS x2


BRIDGE A (this part is pretty layered and hard for me to pick out, so this is NOT accurate!!)
D#|------------------|-----------------------|--------------------------|--------------------------|
A#|------------------|-----------15-13-------|--10h11-10h11-------10h11-|--10-------------10-11-13-|
F#|----------3-5-3-2-|--2-3-2----------14-15-|--------------12h14-------|-----10-------------------|
C#|------3-5---------|--------3--------------|--------------------------|--------12----------------|
G#|------------------|-----------------------|--------------------------|-----------13-12----------|
C#|------------------|-----------------------|--------------------------|--------------------------|

D#|--13-----------------------|--------------------15-18-|--18----17----|--14----10----|
A#|-------10-11p10------------|--------------13-15-------|--------------|--------------|
F#|----------------10---------|--------10-15-------------|--------------|--------------|
C#|-------------------12------|-----12-------------------|------(tremolo picked)-------|
G#|-----------------------13--|--13----------------------|--------------|--------------|
C#|---------------------------|--------------------------|--------------|--------------|

BRIDGE B
D#|----------------------|----------------------|----------------------|----------------------|
A#|--11p8-11p8-11p8-11p8-|--11p8-11p8-11p8-11p8-|--10p6-10p6-10p6-10p6-|--10p6-10p6-10p6-10p6-|
F#|----------------------|----------------------|----------------------|----------------------|
C#|----------------------|----------------------|----------------------|----------------------|
G#|----------------------|----------------------|----------------------|----------------------|
C#|----------------------|----------------------|----------------------|----------------------|

(BRIDGE B harmony)
D#|--------------------------|--------------------------|----------------------||
A#|--14p10-14p10-14p10-14p10-|--14p10-14p10-14p10-14p10-|--12p9-12p9-12p9-12p9-||
F#|--------------------------|--------------------------|----------------------||
C#|--------------------------|--------------------------|----------------------||
G#|--------------------------|--------------------------|----------------------||
C#|--------------------------|--------------------------|----------------------||

------------------------|
--12p9-12p9-12p10-12p10-|
------------------------|
------------------------|
------------------------|
------------------------|



CHORUS 3A
D#|---------------|---------------|------------------|------------------|
A#|---------------|---------------|------------------|------------------|
F#|---------------|---------------|------------------|------------------|
C#|---------------|---------------|------------------|------------------|
G#|--8~~~~~~~~----|---------------|--3-3-3-3-3-3-3-3-|--3-5-5-5-5-5-5-5-|
C#|--5~~~~~~~~----|---------------|--1-1-1-1-1-1-1-1-|--1-3-3-3-3-3-3-3-|

D#|------------------|------------------|------------------|------------------|
A#|--8-8-8-8-8-8-8-8-|--6-6-6-6-6-6-6-6-|--4-4-4-4-4-4-4-4-|--6-6-6-6-6-6-6-6-|
F#|--7-7-7-7-7-7-7-7-|--5-5-5-5-5-5-5-5-|--3-3-3-3-3-3-3-3-|--5-5-5-5-5-5-5-5-|
C#|------------------|------------------|------------------|------------------|
G#|------------------|------------------|------------------|------------------|
C#|------------------|------------------|------------------|------------------|

CHORUS 3B
D#|-----------------|----5-5-5-6-6-5-5-|-----------------|------------------|
A#|--8--8-8-8-8-8-8-|--8-6-6-6-6-6-6-6-|--4--4-4-4-4-4-4-|--4-6-6-6-6-6-6-6-|
F#|--7--7-7-7-7-7-7-|--7-5-5-5-5-5-5-5-|--3--3-3-3-3-3-3-|--3-5-5-5-5-5-5-5-|
C#|-----------------|------------------|-----------------|------------------|
G#|-----------------|------------------|-----------------|------------------|
C#|-----------------|------------------|-----------------|------------------| x2

CHORUS 3C/OUTRO
D#|----------------------|----------------------|----------------------|----------------------|
A#|--11p8-11p8-11p8-11p8-|--10p6-10p6-10p6-10p6-|--8p4-8p4-8p4-8p4-8p4-|--10p6-10p6-10p6-10p6-|
F#|----------------------|----------------------|----------------------|----------------------|
C#|----------------------|----------------------|----------------------|----------------------|
G#|----------------------|----------------------|----------------------|----------------------|
C#|----------------------|----------------------|----------------------|----------------------|

D#|----------------------|----------------------|----------------------|-----------------------|
A#|--11p8-11p8-11p8-11p8-|--10p6-10p6-10p6-10p6-|--8p4-8p4-8p4-8p4-8p4-|--10p6-10p6-10p6-10-11-|
F#|----------------------|----------------------|----------------------|-----------------------|
C#|----------------------|----------------------|----------------------|-----------------------|
G#|----------------------|----------------------|----------------------|-----------------------|
C#|----------------------|----------------------|----------------------|-----------------------|

D#|----------------|
A#|--11~~~~~~~-----|
F#|----------------|
C#|----------------|
G#|----------------|
C#|----------------|

(CHORUS 3C/OUTRO HARMONY)
D#|--------------------------|----------------------|----------------------|----------------------|
A#|--14p10-14p10-14p10-14p10-|--12p9-12p9-12p9-12p9-|--10p7-10p7-10p7-10p7-|--12p9-12p9-12p9-12p9-|
F#|--------------------------|----------------------|----------------------|----------------------|
C#|--------------------------|----------------------|----------------------|----------------------|
G#|--------------------------|----------------------|----------------------|----------------------|
C#|--------------------------|----------------------|----------------------|----------------------|

D#|--------------------------|----------------------|----------------------|-----------------------|
A#|--14p10-14p10-14p10-14p10-|--12p9-12p9-12p9-12p9-|--10p7-10p7-10p7-10p7-|--12p9-12p9-12p9-12-14-|
F#|--------------------------|----------------------|----------------------|-----------------------|
C#|--------------------------|----------------------|----------------------|-----------------------|
G#|--------------------------|----------------------|----------------------|-----------------------|
C#|--------------------------|----------------------|----------------------|-----------------------|

D#|----------------|
A#|--14~~~~~~~-----|
F#|----------------|
C#|----------------|
G#|----------------|
C#|----------------|


************************************

| /   slide up
| \   slide down
| h   hammer-on
| p   pull-off
| ~   vibrato
| +   harmonic
| x   Mute note
| b   Bend
| pb  Pre-bend
| br  Bend release
| pbr Pre-bend release
| brb Bend release bend

************************************
Добавлено: 09.08.2013
Вам также может быть интересно:
Другие материалы по этой песне:

Страница создана 03.06.2013
http://primanota.ru/sent-by-ravens/true-bride-chords.htm
Привет, Гость.
Предлагаем пройти революционный курс по гитаре.
Подарок от PrimaNota.Ru, забирай!