PrimaNota.ru - самый крупный в мире бесплатный архив песенных текстов, аккордов, табулатур и нот


Sent By Ravens - Need It Today - таба, видео

Регистрация Запомнить меня
Войти через:  Facebook Google Twitter Vk Yandex Mail.ru

Sent By Ravens - Need It Today - таба, видео

Печатать
Просмотров: 111
Tuning Drop C

listen to song for strumming pattern

intro guitar

intro

d|------------------------------------------------|
B|------------------------------------------------|
F|------------------------------------------------|
C|--0-|-11--0-9-6-13-0--4----4--7-6----------0----|
G|--0-|-x---0-x-x-x--0--4--7---4----2-4------0----|
C|--0-|-9---0-7-4-11-0--4---------------2-4--0----|

Verse 1
 Subtle in the background

d--4------ 4-----------9------|
B-------5------5/7-10---------|
F-----6------6------------9---| 2x
C-----------------------------|
G-----------------------------|
C-----------------------------|

Chorus same as intro

Verse 2

d--------------------------|
B--------------------------|
F--------------------------|
C--4--0--2--11--6--4--6----|
G--4--0--2--9---7--5--7----|
C--4--0--2--9---0--0--0----|
pm and open mixed

d----------------|
B----------------|
F----------------|
C--0-2-6-6-9-----|
G--0-0-2-4-7-----|
C--0-0-2-4-7-----|

d------------|
B------------|
F------------|
C--0-2-6-----|
G--0-0-2-----|
C--0-0-2-----|

Chorus same as intro

bridge

d----------------------|
B----------------------|
F----------------------|
C--2-4-2-4-2-4-2-4-----|
G--2-4-2-4-2-4-2-4-----|
C--2-4-2-4-2-4-2-4-----|

Soft Chorus

d----------------|
B----------------|
F----------------|
C--0--4--4-4-----| 4x
G--0--4--4-4-----|
C--0--4--4-4-----|
      r     r

Chorus same as intro

Outro has no guitar but it sounds ok to play it this way

d--------------------|
B--------------------|
F--------------------|
C--0--|--4--2--6--0--|
G--0--|--4--2--2--0--| play this over and over until the end
C--0--|--4--2--2--0--|

if you are confused watch this guiatr cover from a dude in youtube i did not make this 
video no copyright intended
http://www.youtube.com/watch?v=fABgTro6Mrw
Добавлено: 08.09.2013
Другие материалы по этой песне:

Страница создана 08.09.2013
http://primanota.ru/sent-by-ravens/need-it-today-chords.htm
Привет, Гость.
Предлагаем пройти революционный курс по гитаре.
Подарок от PrimaNota.Ru, забирай!