PrimaNota.ru - самый крупный в мире бесплатный архив песенных текстов, аккордов, табулатур и нот


Senses Fail - The Path - таба, бас-таба, видео

Регистрация Запомнить меня
Войти через:  Facebook Google Twitter Vk Yandex Mail.ru

Senses Fail - The Path - таба, бас-таба, видео

Печатать
Просмотров: 58
/ - slide up
\ - slide down
~ - vibrato
. - Mute note
H - Half bend


Intro: x2


|-----------------------------------------------------------------|
|-----------------------------------------------------------------|
|-----------------------------------------------------------------|
|-----------------------------------------------------------------|
|--5-8-5-0-4-7-4-7-5-8-5-0-4-7-4-7-5-8-5-0-4-7-4-7-1-1-1-1-4-4-4-4|
|--5-8-5-0-4-7-4-7-5-8-5-0-4-7-4-7-5-8-5-0-4-7-4-7-1-1-1-1-4-4-4-4|


Verse


|--------------------------------------------------------------------|
|--------------------------------------------------------------------|
|-------------------------7-7-7-7-------------------------7-7-7-7----|
|-------------------------6-6-6-6-------------------------6-6-6-6----|
|--5-5----------------------------5-5-----------------------------5-5|
|--5-5----------------------------5-5-----------------------------5-5|
   . .                            . .                             . .

Pre-Chorus


|-----------------------------------------------------------------|
|-----------------------------------------------------------------|
|-----------------------------------------------------------------|
|-----------------------------------------------------------------|
|-----------------------------------------------------------------|
|--5-5-5-5-5-5-5-5-5-5-5-5-5-5-5-5-5-5-5-5-5-5-5-5-5-5-5-5-5-5-5-5|
   . . . . . . . . . . . . . . . . . . . . . . . . . . . . . . . .

Chorus x2

Guitar 1

|----------------------------------------------------------------|
|----------------------------------------------------------------|
|--------9-------------9-----------------------------------------|
|------7-------------7------------8-8-8-8-8-8-8-8-8-7-7-7-7-7-7-7|
|--9-9------0--0---9-------0--0---8-8-8-8-8-8-8-8-8-7-7-7-7-7-7-7|
|-----------0--0-----------0--0---8-8-8-8-8-8-8-8-8-7-7-7-7-7-7-7|


|----------------------------------------------------------------|
|----------------------------------------------------------------|
|----------------------------------------------------------------|
|-0-0-0-0-0-0-0-0-0-0-0-0-0-0-0-0-8-8-8-8-8-8-8-8-8-7-7-7-7-7-7-7|
|-0-0-0-0-0-0-0-0-0-0-0-0-0-0-0-0-8-8-8-8-8-8-8-8-8-7-7-7-7-7-7-7|
|-0-0-0-0-0-0-0-0-0-0-0-0-0-0-0-0-8-8-8-8-8-8-8-8-8-7-7-7-7-7-7-7|


Guitar 2


|----------------------------------------------------------------------|
|----------------------------------------------------------------------|
|-----------------------------10-10-10-10-10-10-10-10-10\9-9-9-9-9-9-9-|
|----------------------------------------------------------------------|
|---------0--0----------0--0---8--8--8--8--8--8--8--8--8\7-7-7-7-7-7-7-|
|---------0--0----------0--0-------------------------------------------|


|---------------------------------------------------------------------------|
|---------------------------------------------------------------------------|
|-11-11-11-11-11-11-11-11-11-11\9-9\7/10-10-10-10-10-10-10-10\9-9-9-9-9-9-9-|
|---------------------------------------------------------------------------|
|-9--9--9--9--9--9--9--9--9--9-\7-7\5/8--8--8--8--8--8--8--8-\7-7-7-7-7-7-7-|
|---------------------------------------------------------------------------|


Intro


|-----------------------------------------------------------------|
|-----------------------------------------------------------------|
|-----------------------------------------------------------------|
|-----------------------------------------------------------------|
|--5-8-5-0-4-7-4-7-5-8-5-0-4-7-4-7-5-8-5-0-4-7-4-7-1-1-1-1-4-4-4-4|
|--5-8-5-0-4-7-4-7-5-8-5-0-4-7-4-7-5-8-5-0-4-7-4-7-1-1-1-1-4-4-4-4|


Verse


|--------------------------------------------------------------------|
|--------------------------------------------------------------------|
|-------------------------7-7-7-7-------------------------7-7-7-7----|
|-------------------------6-6-6-6-------------------------6-6-6-6----|
|--5-5----------------------------5-5-----------------------------5-5|
|--5-5----------------------------5-5-----------------------------5-5|
   . .                            . .                             . .

Pre Chorus (2): x2

|----------------------------------------------|
|----------------------------------------------|
|----------------------------------------------|
|----------------------------------------------|
|--12\-----------------------------------------|
|--12\-0-0-0-0-0-0-0-0-0-0-0-0-0-0-0-0-0-0-0-0-|
       . . . . . . . . . . . . . . . . . . . .

Chorus played twice

Interlute:

Guitar 1

|----------------------------------12-14-| Let ring and
|------------------8---7---11---15-------| and continue
|--7-----7-----7-----0---0----0----------| on guitar 2
|----7-----7-----7-----------------------|
|------9-----9---------------------------|
|----------------------------------------|

Guitar 2
                       H
|----------------------------|
|------------------8---10----|
|--7-----7-----7-----7-------|
|----7-----7-----7-----------|
|------9-----9---------------|
|----------------------------|


Bridge:


|---------------------------------------------------------------|
|---------------------------------------------------------------|
|---------------------------------------------------------------|
|-5-5-5-5-5-5-5-5-5-5-5-5-5-5-5-0-0-0-0-0-0-0-0-0-0-0-0-0-0-0-0-|
|-5-5-5-5-5-5-5-5-5-5-5-5-5-5-5-0-0-0-0-0-0-0-0-0-0-0-0-0-0-0-0-|
|-5-5-5-5-5-5-5-5-5-5-5-5-5-5-5-0-0-0-0-0-0-0-0-0-0-0-0-0-0-0-0-|


|---------------------------------------------------------------|
|---------------------------------------------------------------|
|---------------------------------------------------------------|
|-1-1-1-1-1-1-1-1-1-1-1-1-1-1-1-3-3-3-3-3-3-3-3-3-3-3-3-3-3-3-3-|
|-1-1-1-1-1-1-1-1-1-1-1-1-1-1-1-3-3-3-3-3-3-3-3-3-3-3-3-3-3-3-3-|
|-1-1-1-1-1-1-1-1-1-1-1-1-1-1-1-3-3-3-3-3-3-3-3-3-3-3-3-3-3-3-3-|


|-----|
|-----|
|-----|
|--0--|
|--0--|
|--0--|



End Riff


|-----------------------------------------------------------------|
|-----------------------------------------------------------------|
|------------7\---------------------------------------------------|
|------------6\---------------------------------------------------| x2
|------------5\-------------------------------------3-----------4-|
|-0-0---0-0-----0-0-0-0-7--0-7--0-3--0-3--0-3-3-5-6---6-5-3-5-6---|
  . .   . .             H    H    H    H    H


|----------------------------------------------------------------------|
|----------------------------------------------------------------------|
|-----------------7\---------------------------------------------------|
|-----------------6\---------------------------------------------------| x2
|-----------------5\-------------------------------------3-----------4-|
|-0-0-0-0-0-0-0-0-----0-0-0-0-7--0-7--0-3--0-3--0-3-3-5-6---6-5-3-5-6--|
  . . . . . . . .             H    H    H    H    H



|------------------------------------|
|------------------------------------|
|------------------------------------|
|-----------------0---------------0--|
|-----------------0---------------0--|
|-0-0-0-0-0-0-0-0-0-0-0-0-0-0-0-0-0--|
  . . . . . . . .   . . . . . . .
Добавлено: 13.06.2013
Другие материалы по этой песне:
  • Аккорды и текст

Страница создана 13.06.2013
http://primanota.ru/senses-fail/the-path-chords.htm
Привет, Гость.
Предлагаем пройти революционный курс по гитаре.
Подарок от PrimaNota.Ru, забирай!