PrimaNota.ru - самый крупный в мире бесплатный архив песенных текстов, аккордов, табулатур и нот


Senses Fail - New Years Eve - таба, видео

Регистрация Запомнить меня
Войти через:  Facebook Google Twitter Vk Yandex Mail.ru

Senses Fail - New Years Eve - таба, видео

Печатать
Просмотров: 101
-----------------------------------------------------------------
New Years Eve – Senses Fail
-----------------------------------------------------------------
Tabbed by: Jake
Email: jiggliotti@gmail.com
Tuning: Drop C# (C#G#c#F#A#D#)


NOTICE: Some places the number 1 substitutes 10 and 2 substitutes 12 to save 
space. Just play what sounds right.

Intro:
D#|---------------------------------------------------------------|
A#|3-3-3-3-3-3-1-1-3-3-3-3-3-3-1-1-3-3-3-3-3-3-1-1-3-3-3-3--------|
F#|-2-2-2-2-2-2-2-2-2-2-2-2-2-2-2-2-2-2-2-2-2-2-2-2-2-2-2-2-------|
c#|--------------------------------------------------------0-0-0-0|
G#|--------------------------------------------------------0-0-0-0|
C#|--------------------------------------------------------0-0-0-0|

Verse 1(x2 strumming change second time):
D#|---------------------------------------------------------------|
A#|---------------------------------------------------------------|
F#|-----------------101010-7-7-7-9-9-9----------------------------|
c#|0000-----0000----8-8-8--5-5-5-7-7-7-1-1-1----------------------|
G#|0000-----0000----8-8-8--5-5-5-7-7-7-1-1-1----------------------|
C#|0000-----0000----8-8-8--5-5-5-7-7-7-1-1-1----------------------|


Pre-Chorus:
D#|---------------------------------------------------------------|
A#|---------------------------------------------------------------|
F#|------------------------------------------5566-----------------|
c#|5-5-55-5-55-5-55-5-58-8-88-8-8------------xxxx-----------------|
G#|5-5-55-5-55-5-55-5-58-8-88-8-8-7p008p005p03344-----------------|
C#|5-5-55-5-55-5-55-5-58-8-88-8-8---------------------------------|

Chorus:
D#|---------------------------------------------------------------|
A#|---------------------------------------------------------------|
F#|777777777777999911111111111111117777777777777777---7777----9999|
c#|777777777777xxxx888888888888888855555555555555550-0xxxx-0-0xxxx|
G#|5555555555557777888888888888888855555555555555550-05555-0-07777|
C#|----------------888888888888888855555555555555550-0-----0-0----|

D#|---------------------------------------------------------------|
A#|---------------------------------------------------------------|
F#|777777777777999911111111111111117777777777777777---------------|
c#|777777777777xxxx88888888888888885555555555555555---------------|
G#|555555555555777788888888888888885555555555555555---------------|
C#|----------------88888888888888885555555555555555---------------|

Pre-Verse:
D#|---------------------------------------------------------------|
A#|---------------------------------------------------------------|
F#|7--57-7--1012--------------------------------------------------|
c#|70-5705-0x-x-0-8-10--------------------------------------------|
G#|50-3505-08-100-8-10--------------------------------------------|
C#|-0---05-0----0-8-10--------------------------------------------|

Verse 2(x2 strumming change second time):
D#|---------------------------------------------------------------|
A#|---------------------------------------------------------------|
F#|-----------------101010-7-7-7-9-9-9----------------------------|
c#|0000-----0000----8-8-8--5-5-5-7-7-7-1-1-1----------------------|
G#|0000-----0000----8-8-8--5-5-5-7-7-7-1-1-1----------------------|
C#|0000-----0000----8-8-8--5-5-5-7-7-7-1-1-1----------------------|



Pre-Chorus:
D#|---------------------------------------------------------------|
A#|---------------------------------------------------------------|
F#|---------------------------------------------------------------|
c#|5-5-55-5-55-5-55-5-58-8-88-8-88--------------------------------|
G#|5-5-55-5-55-5-55-5-58-8-88-8-88--------------------------------|
C#|5-5-55-5-55-5-55-5-58-8-88-8-88--------------------------------|


D#|---------------------------------------------------------------|
A#|---------------------------------------------------------------|
F#|------------------------------------------5566-----------------|
c#|------------------------------------------xxxx-----------------|
G#|7p008p005p08p00(10)p005p0(10)p00(12)p005p03344-----------------|
C#|---------------------------------------------------------------|

Chorus:
D#|---------------------------------------------------------------|
A#|---------------------------------------------------------------|
F#|777777777777999911111111111111117777777777777777---7777----9999|
c#|777777777777xxxx888888888888888855555555555555550-0xxxx-0-0xxxx|
G#|5555555555557777888888888888888855555555555555550-05555-0-07777|
C#|----------------888888888888888855555555555555550-0-----0-0----|

D#|---------------------------------------------------------------|
A#|---------------------------------------------------------------|
F#|777777777777999911111111111111117777777777777777---------------|
c#|777777777777xxxx88888888888888885555555555555555---------------|
G#|555555555555777788888888888888885555555555555555---------------|
C#|----------------88888888888888885555555555555555---------------|

Build-up:
D#|--------------------------------------------------------------------|
A#|--------------------------------------------------------------------|
F#|--------------------------------------------------------------------|
c#|0-0-00-0-0-00-0-0-0-00-0-0-00-0-1-0-0-00-0-0-00-0-0-0-00-0<000000000|
G#|0-0-00-0-0-00-0-0-0-00-0-0-00-0-1-0-0-00-0-0-00-0-0-0-00-0<000000000|
C#|0-0-00-0-0-00-0-0-0-00-0-0-00-0-1-0-0-00-0-0-00-0-0-0-00-0<000000000|
                                                              .........

Bridge:
D#|--------------------------------------------------------------------|
A#|--------------------------------------------------------------------|
F#|111111111111111177777777777777777777777777777777--------------------|
c#|8888888888888888555555555555555500000000000000003333333333333333----|
G#|8888888888888888555555555555555500000000000000003333333333333333----|
C#|8888888888888888555555555555555500000000000000003333333333333333----|

D#|--------------------------------------------------------------------|
A#|--------------------------------------------------------------------|
F#|111111111111111122222222--------------------------------------------|
c#|8888888888888888111111112222222\------------------------------------|
G#|8888888888888888111111112222222\------------------------------------|
C#|8888888888888888111111112222222\------------------------------------|


Break (solo):
D#|--------------------------------------------------------------------|
A#|--------------------------------------------------------------------|
F#|--------------------------------------------------------------------|                   
c#|-------------------------------------------------------5-8----------|
G#|-------------------------------------------------------5-8----------|
C#|(12)0-(12)(10)0-(10)8-0708(10)(12)0-(12)(10)0-(10)8-0705-8----------|

D#|--------------------------------------------------------------------|
A#|--------------------------------------------------------------------|
F#|------------------------------7--57-7-1012--------------------------|                   
c#|------------------------------70-57050x-x-011111--------------------|
G#|------------------------------50-350508-10011111--------------------|
C#|(12)0-(12)(10)0-(10)8-0708(10)-0---050----011111--------------------|

Chorus:
D#|---------------------------------------------------------------|
A#|---------------------------------------------------------------|
F#|777777777777999911111111111111117777777777777777---7777----9999|
c#|777777777777xxxx888888888888888855555555555555550-0xxxx-0-0xxxx|
G#|5555555555557777888888888888888855555555555555550-05555-0-07777|
C#|----------------888888888888888855555555555555550-0-----0-0----|


D#|---------------------------------------------------------------|
A#|---------------------------------------------------------------|
F#|777777777777999911111111111111117777777777777777---------------|
c#|777777777777xxxx88888888888888885555555555555555---------------|
G#|555555555555777788888888888888885555555555555555---------------|
C#|----------------88888888888888885555555555555555---------------|

Ending:
D#|---------------------------------------------------------------|
A#|---------------------------------------------------------------|
F#|---------------------------------------------------------------|                   
c#|-------------------------------------------------------5!------|
G#|-------------------------------------------------------5!------|
C#|(12)0-(12)(10)0-(10)8-0708(10)(12)0-(12)(10)0-(10)8-0705!------|

D#|-------------------------------------------------------------2-|
A#|-------------------------------------------------------8!10!-3-|
F#|-------------------------------------------------------7!9!--2-|                   
c#|-------------------------------------------------------5!7!--0-|
G#|-------------------------------------------------------5!7!--0-|
C#|(12)0-(12)(10)0-(10)8-0708(10)(12)0-(12)(10)0-(10)8-0705!7!--0-|
Добавлено: 02.07.2012
Другие материалы по этой песне:
  • Аккорды и текст

Страница создана 02.07.2012
http://primanota.ru/senses-fail/new-years-eve-chords.htm
Привет, Гость.
Предлагаем пройти революционный курс по гитаре.
Подарок от PrimaNota.Ru, забирай!