PrimaNota.ru - самый крупный в мире бесплатный архив песенных текстов, аккордов, табулатур и нот


Senses Fail - Lifeboats - таба, видео

Регистрация Запомнить меня
Войти через:  Facebook Google Twitter Vk Yandex Mail.ru

Senses Fail - Lifeboats - таба, видео

Печатать
Просмотров: 140
-----------------------------------------------------------------
LIFEBOATS – Senses Fail
-----------------------------------------------------------------
Tabbed by: Jake
Email:jiggliotti@gmail.com

Tuning: Drop C

Intro:

Guitar 1:
D|---------------------------------|
A|---------------------------------|
F|777777775555555------------------|
C|xxxxxxxxxxxxxxx8-8--7-7--3-3--5-5|(x2)
G|5555555533333338-8--7-7--3-3--5-5|
C|0000000000000008-8--7-7--3-3--5-5|

Guitar 2:
D|------------------------------------------------|
A|------------------------------------------------|
F|10-10-10-10-10-10-10-109999999------------------|
C|x--x--x--x--x--x--x--x-xxxxxxx8-8--7-7--3-3--5-5|(x2)
G|8--8--8--8--8--8--8--8-77777778-8--7-7--3-3--5-5|
C|------------------------------8-8--7-7--3-3--5-5|

Verse 1:

Guitar 1 (Guitar 2 plays slightly different harmony at end):
D|--------------------------|
A|--------------------------|
F|--------------------------|
C|7--------------9------10-6|(x3)
G|5--------------7------8--4|
C|-00000000000000-000000----|
   .............. ......

D|---------------------------|
A|---------------------------|
F|---------------------------|
C|7--------------9------10-12|
G|5--------------7------8--10|
C|-00000000000000-000000-----|
   .............. ......
Pre Chorus:

Guitar 1:
D|-------------------------------------------|
A|-------------------------------------------|
F|------------------------7--6--7--6----9-910|
C|555555554444444433333333x--x--x--x----x-xx-|
G|5555555544444444333333335--4--5--4----7-78-|
C|555555554444444433333333-00-00-00-0000-0---|
                           .. .. .. .... .


Guitar 2:
D|-----------------------------------------------|
A|-----------------------------------------------|
F|------------------------10--9--10--9----12-1214|
C|555555554444444433333333x---x--x---x----x--x-x-|
G|5555555544444444333333338---7--8---7----10-1012|
C|555555554444444433333333—-00-00--00-0000--0----|
                            .. ..  .. ....  .
Pre-Chorus Part 2:

Both Guitars:
D|---------------------------------------------------------------|
A|---------------------------------------------------------------|
F|---------------------------------------------------------------|
C|5555555544444444333333332222222222-----------------------------|
G|5555555544444444333333332222222222-----------------------------|
C|5555555544444444333333332222222222-----------------------------|
                           .....(16ths)

Chorus (Intro slightly different strumming 4th time):

Guitar 1:
D|---------------------------------|
A|---------------------------------|
F|777777775555555------------------|
C|xxxxxxxxxxxxxxx8-8--7-7--3-3--5-5|(x4)
G|5555555533333338-8--7-7--3-3--5-5|
C|0000000000000008-8--7-7--3-3--5-5|

Guitar 2 :
D|----------------------------------------------------|
A|----------------------------------------------------|
F|10-10-10-10-10-10-10-10 9999999-15-15-14-14-10101212|
C|x--x--x--x--x--x--x--x--xxxxxxx-x--x--x--x--x-x-x-x-|(x4)
G|8--8--8--8--8--8--8--8--7777777-13-13-12-12-8-8-1010|
C|----------------------------------------------------|


Verse 2:

Guitar 1 (Guitar 2 plays slightly different harmony at end):
D|--------------------------|
A|--------------------------|
F|--------------------------|
C|7--------------9------10-6|(x3)
G|5--------------7------8--4|
C|-00000000000000-000000----|
   .............. ......

D|--|
A|--|
F|--|
C|7!|(I question the reasons that I self-abuse!)
G|5!|
C|--|

Pre Chorus:

Guitar 1:
D|-------------------------------------------|
A|-------------------------------------------|
F|------------------------7--6--7--6----9-910|
C|555555554444444433333333x--x--x--x----x-xx-|
G|5555555544444444333333335--4--5--4----7-78-|
C|555555554444444433333333-00-00-00-0000-0---|
                           .. .. .. .... .


Guitar 2:
D|-----------------------------------------------|
A|-----------------------------------------------|
F|------------------------10--9--10--9----12-1214|
C|555555554444444433333333x---x--x---x----x--x-x-|
G|5555555544444444333333338---7--8---7----10-1012|
C|555555554444444433333333—-00-00--00-0000--0----|
                            .. ..  .. ....  .
Pre-Chorus Part 2:

Both Guitars:
D|---------------------------------------------------------------|
A|---------------------------------------------------------------|
F|---------------------------------------------------------------|
C|555555554444444433333333---------------------------------------|
G|555555554444444433333333---------------------------------------|
C|5555555544444444333333332222221111111111-----------------------|
                           .. .. ..  . ...
 
Chorus:

Guitar 1:
D|---------------------------------|
A|---------------------------------|
F|777777775555555------------------|
C|xxxxxxxxxxxxxxx8-8--7-7--3-3--5-5|(x2)
G|5555555533333338-8--7-7--3-3--5-5|
C|0000000000000008-8--7-7--3-3--5-5|

Guitar 2 :
D|----------------------------------------------------|
A|----------------------------------------------------|
F|10-10-10-10-10-10-10-10 9999999-15-15-14-14-10101212|
C|x—-x--x--x--x--x--x--x--xxxxxxx-x--x--x--x--x-x-x-x-|(x2)
G|8--8--8--8--8--8--8--8--7777777-13-13-12-12-8-8-1010|
C|----------------------------------------------------|








Chorus Part 2 (variation):

Guitar 1:
D|---------------------------------|
A|---------------------------------|
F|777777775555555------------------|
C|xxxxxxxxxxxxxxx8-8--7-7--3-33-535|
G|5555555533333338-8--7-7--3-33-535|
C|0000000000000008-8--7-7--3-33-535|

Guitar 2 :
D|--------------------------------------------------------|
A|--------------------------------------------------------|
F|10-10-10-10-10-10-10-10 9999999-15-15-14-14-101010121012|
C|x—-x--x--x--x--x--x--x--xxxxxxx-x--x--x--x--x-x-x-x-x-x-|
G|8--8--8--8--8--8--8--8--7777777-13-13-12-12-8-8-8-108-10|
C|--------------------------------------------------------|

Guitar 1:
D|--------------------------------|
A|--------------------------------|
F|--------------------------------|
C|88888888888888885555555577773333|
G|88888888888888883333333377773333|
C|8888888888888888--------77773333|

Guitar 2 :
D|--|     D|--|     D|--|     D|--|
A|--|     A|--|     A|--|     A|--|
F|15|     F|17|     F|14|     F|10|
C|x—|(x16)C|x-|(x8) C|x-|(x4) C|x-|(x4)     
G|13|     G|15|     G|12|     G|8-|   
C|--|     C|--|     C|--|     C|--|  


Bridge:

Guitar 1:
D|--------------------------------|
A|--------------------------------|
F|--------------------------------|
C|11111111111111115555555555555555|
G|11111111111111115555555555555555|
C|11111111111111115555555555555555|

D|--------------------------------|
A|--------------------------------|
F|--------------------------------|
C|88888888888888880000000000000000|
G|88888888888888880000000000000000|
C|88888888888888880000000000000000|





D|--------------------------------|
A|--------------------------------|
F|--------------------------------|
C|11111111111111115555555555555555|
G|11111111111111115555555555555555|
C|11111111111111115555555555555555|

D|--------------------------------|
A|--------------------------------|
F|--------------------------------|
C|33333333333333335555555555555555|
G|33333333333333333333333333333333|
C|3333333333333333----------------|

D|--------------------------------|
A|--------------------------------|
F|--------------------------------|
C|5!55555555555555----------------|
G|3!33333333333333----------------|
C|--------------------------------|
    ..............


Guitar 2 (solo):
D|101010----------101010----------|
A|------1111111010------1111111010|
F|--------------------------------|
C|--------------------------------|
G|--------------------------------|
C|--------------------------------|

D|--------------------------------|
A|------1010101111------1010101111|
F|121212----------121212----------|
C|--------------------------------|
G|--------------------------------|
C|--------------------------------|

D|131313----------131313----------|
A|------1313131111------1313131111|
F|--------------------------------|
C|--------------------------------|
G|--------------------------------|
C|--------------------------------|

D|11111110101088101010------------|
A|--------------------1010101111--|
F|--------------------------------|
C|--------------------------------|
G|--------------------------------|
C|--------------------------------|





D|101010----------101010----------|
A|------1111111010------1111111010|
F|--------------------------------|
C|--------------------------------|
G|--------------------------------|
C|--------------------------------|

D|--------------------------------|
A|------1010101111------1010101111|
F|121212----------121212----------|
C|--------------------------------|
G|--------------------------------|
C|--------------------------------|

D|------------1010------------1010|
A|111111131313----111111131313----|
F|--------------------------------|
C|--------------------------------|
G|--------------------------------|
C|--------------------------------|

D|--------------------------------|
A|--------------------------------|
F|12-10----12-13-14---------------|
C|------12------------------------|
G|--------------------------------|
C|--------------------------------|

(32nd note strumming here)
D|--------------------------------|
A|13131313131313131515151515151515|
F|--------------------------------|
C|--------------------------------|
G|--------------------------------|
C|--------------------------------|

D|----------------171717171717171713~|
A|1717171717171717-------------------|
F|-----------------------------------|
C|-----------------------------------|
G|-----------------------------------|
C|-----------------------------------|

Breakdown:

Both Guitars (play this open chord to rhythm of bass drum):
D|-|
A|-|
F|-|
C|-|
G|0|
C|0|
  .



Breakdown Part 2 (I'm still alone!):

Guitar 1:
D|----------------|
A|----------------|
F|--------7/10-6/9|
C|0-0-32--x-x--x-x|(x2)
G|0-0-32--5/8--4/7|
C|0-0-320---------|


Guitar 2:
D|----------------|
A|----------------|
F|--------7/10-6/9|
C|0-0-32--x-x--x-x|
G|0-0-32--5/8--4/7|
C|0-0-320---------|

D|------------------|
A|------------------|
F|--------10/14-9/12|
C|0-0-32--x--x--x-x-|
G|0-0-32--8-/12-7/10|
C|0-0-320-----------|

Breakdown Part 3 (Fell into the ocean..):

Guitar 1:
D|-----------------------------------|
A|-----------------------------------|
F|-----------------------------------|
C|55588844444444443333333366666666---|
G|55588844444444443333333344444444---|
C|555888444444444433333333-----------|

D|-----------------------------------|
A|-----------------------------------|
F|-----------------------------------|
C|5-----9-10-5-----9-10--------------|
G|3-----7-8-43-----7-8---------------|
C|-0-00-------0-00-------------------|

Guitar 2:
D|-----------------------------------|
A|-----------------------------------|
F|-----------------------------------|
C|55588844444444443333333366666666---|
G|55588844444444443333333344444444---|
C|555888444444444433333333-----------|






D|-----------------------------------|
A|-----------------------------------|
F|-----------------12-14-------------|
C|5-----9-10-5-----x--x--------------|
G|3-----7-8-43-----10-12-------------|
C|-0-00-------0-00-------------------|

Breakdown Part 4 (last fell into the ocean):

Guitar 1 (Guitar 2 played the same with octave chords):
D|------------------------|
A|------------------------|
F|------------------------|
C|555888444444333322222222|
G|555888444444333322222222|
C|555888444444333322222222|

D|------------------------|
A|------------------------|
F|------------------------|
C|666666666666666-----0~--|
G|444444444444444-----0~--|
C|--------------------0~--|
   ....  .. ....

Chorus Pickup:

Guitar 1 (Guitar 2 use octave chords):
D|----------------|
A|----------------|
F|----------------|
C|8888777733335555|
G|8888777733335555|
C|8888777733335555|

Chorus Finish:

Guitar 1:
D|---------------------------------|
A|---------------------------------|
F|777777775555555------------------|
C|xxxxxxxxxxxxxxx8-8--7-7--3-3--5-5|
G|5555555533333338-8--7-7--3-3--5-5|
C|0000000000000008-8--7-7--3-3--5-5|

D|---------------------------------|
A|---------------------------------|
F|777777775555555------------------|
C|xxxxxxxxxxxxxxx8-8--7-7--3-33-535|
G|5555555533333338-8--7-7--3-33-535|
C|0000000000000008-8--7-7--3-33-535|





D|---------------------------------|
A|---------------------------------|
F|---------------------------------|
C|88888888888888881010101010101010-|
G|88888888888888881010101010101010-|
C|88888888888888881010101010101010-|

D|------------|
A|------------|
F|------------|
C|7~--3~--0~--|
G|7~--3~--0~--|
C|7~--3~--0~--|



Guitar 2 :
D|----------------------------------------------------|
A|----------------------------------------------------|
F|10-10-10-10-10-10-10-10 9999999-15-15-14-14-10101212|
C|x--x--x--x--x--x--x--x--xxxxxxx-x--x--x--x--x-x-x-x-|
G|8--8--8--8--8--8--8--8--7777777-13-13-12-12-8-8-1010|
C|----------------------------------------------------|

D|--------------------------------------------------------|
A|--------------------------------------------------------|
F|10-10-10-10-10-10-10-10 9999999-15-15-14-14-101010121012|
C|x—-x--x--x--x--x--x--x--xxxxxxx-x--x--x--x--x-x-x-x-x-x-|
G|8--8--8--8--8--8--8--8--7777777-13-13-12-12-8-8-8-108-10|
C|--------------------------------------------------------|

D|---------------------------------|
A|---------------------------------|
F|13131313131313131313131313131313-|
C|x-x-x-x-x-x-x-x-x-x-x-x-x-x-x-x--|
G|11111111111111111111111111111111-|
C|---------------------------------|

D|---------------------------------|
A|---------------------------------|
F|171717171717171715~--14~--10~----|
C|x-x-x-x-x-x-x-x-x----x----x------|
G|151515151515151513~--12~--8-~----|
C|---------------------------------|
Добавлено: 15.03.2012
Другие материалы по этой песне:
  • Аккорды и текст

Страница создана 15.03.2012
http://primanota.ru/senses-fail/lifeboats-chords.htm
Привет, Гость.
Предлагаем пройти революционный курс по гитаре.
Подарок от PrimaNota.Ru, забирай!