PrimaNota.ru - самый крупный в мире бесплатный архив песенных текстов, аккордов, табулатур и нот


Senses Fail - Chandelier - текст песни, таба, видео

Регистрация Запомнить меня
Войти через:  Facebook Google Twitter Vk Yandex Mail.ru

Senses Fail - Chandelier - текст песни, таба, видео

Печатать
Просмотров: 112
-------------------------------------------------------------------------------
                             Chandelier – Senses Fail
-------------------------------------------------------------------------------
Tabbed by: SIRRON_KCUHC
Email: n/a

Please note: This song is great. At least the intro is. Cant find how exactly to play 
whole thing, but during the chorus, play from the 15th fret of the A string and move up to 
18th, 17th, 18th, 15th(D string) and IDK where it goes from there.
You are all smart guitarist so you can figure it out :).

Not too hard but fun.

Remember to emphasize the highest note before each slide to get the effect of the actual song.

Tuning: Drop C

D|--------------------------------------------------------------------------|
A|--------------------------------------------------------------------------|
F|--------10---9--10---9-9/10-10\7-7-9-10\--7---9---10\9--7-----------------|
C|---------x---x---x---x-x--x--x-x-x-x--x---x---x----x-x--x-----------------|
G|---------8---7---8---7-7/-8—-8\5-5-7--7\--5---7----8\7--5-----------------|
C|--/19\-----------------------------------------------------8-8-3-3-7-7-5--|

D|--------------------------------------------------------------------------|
A|--------------------------------------------------------------------------|
F|-10--12--14--12-12/14-14\10-10/12-14\-10--12--14\12-xxxx10----------------|
C|--x---x---x---x--x--x--x--x--x--x--x---x---x---x--x-xxxx-x----------------|
G|--8--10--12--10-10/12-10\-8--8/10-12\--8--10--12\10-xxxx-8----------------|
C|------------------------------------------------------------8-8-3-3-7-7-5-|

This is played alternate picking the original D(now C) string. Make sure to keep tempo.
Takes time to master.
D|--------------------------------------------------------------------------|
A|--------------------------------------------------------------------------|
F|--------------------------------------------------------------------------|
C|-0-0-0-2-2-2-3-3--0-0-0-2-2-2-3-3--0-0-0-2-2-2-3-3--0-0-0-2-2-2-3-3-------|
G|--------------------------------------------------------------------------|
C|--------------------------------------------------------------------------|

D|--------------------------------------------------------------------------|
A|--------------------------------------------------------------------------|
F|--------------------------------------------------------------------------|
C|-0-0-0-2-2-2-3-3--0-0-0-2-2-2-3-3--0-0-0-2-2-2-3-3--0-0-0-2-2-2-3-3-------|
G|--------------------------------------------------------------------------|
C|--------------------------------------------------------------------------|

Chorus:IDK

Intro: Changes to this after the chorus.

D|--------------------------------------------------------------------------|
A|--------------------------------------------------------------------------|
F|-10---9--10---9-9/10-10\7-7-9-10\-10--12---14\12—xxxx---------------------|
C|--x---x---x---x-x--x--x-x-x-x--x---x---x----x--x-xxxx--8------------------|
G|--8---7---8---7-7/-8—-8\5-5-7--7\--8--10---12\10-xxxx--8------------------|
C|-------------------------------------------------------8--8-8-3-3-7-7-5---|

Outro:

D|-----------------------------------------------------------------------|
A|-----------------------------------------------------------------------|
F|-----10---9--10---9-9/10-10\7-7-9-10\--7---9---10\9--7-----------------|
C|------x---x---x---x-x--x--x-x-x-x--x---x---x----x-x--x-----------------|
G|------8---7---8---7-7/-8—-8\5-5-7--7\--5---7----8\7--5-----------------|
C|--------------------------------------------------------8-8-3-3-7-7-5--|

D|---------------------------------------------------------------|
A|---------------------------------------------------------------|
F|--10--12--14--12-12/14-14\10-10/12-14\-10--12--14\12-xxxx------|
C|---x---x---x---x--x--x--x--x--x--x--x---x---x---x--x-xxxx--8---|
G|---8--10--12--10-10/12-10\-8--8/10-12\--8--10--12\10-xxxx--8---|
C|-----------------------------------------------------------8---|

************************************

| /   slide up
| \   slide down
| h   hammer-on
| p   pull-off
| ~   vibrato
| +   harmonic
| x   Mute note
| b   Bend
| pb  Pre-bend
| br  Bend release
| pbr Pre-bend release
| brb Bend release bend

************************************
Добавлено: 19.03.2012
Другие материалы по этой песне:
  • Аккорды и текст

Страница создана 19.03.2012
http://primanota.ru/senses-fail/chandelier-chords.htm
Привет, Гость.
Предлагаем пройти революционный курс по гитаре.
Подарок от PrimaNota.Ru, забирай!