PrimaNota.ru - самый крупный в мире бесплатный архив песенных текстов, аккордов, табулатур и нот


Senses Fail - Angela Baker And My Obsession With Fire - текст песни, таба, видео

Регистрация Запомнить меня
Войти через:  Facebook Google Twitter Vk Yandex Mail.ru

Senses Fail - Angela Baker And My Obsession With Fire - текст песни, таба, видео

Печатать
Просмотров: 79
------------------------------------------------------------------------------
Guitar One - Right Speaker
------------------------------------------------------------------------------

Intro - Guitar One only

Chorus - (No Words)
e|-0-0-0-0-0-0-0-0--0-0-0-0-0-0-0-0--0-0-0-0-0-0-0-0--0-0-0-0-0-0-0-0-|
 |-5-4-0-5-4-0-5-4--5-4-0-5-4-0-5-4--7-4-0-7-4-0-7-4--5-4-0-5-4-0-5-4-|
 |--------------------------------------------------------------------|
 |--------------------------------------------------------------------|
 |--------------------------------------------------------------------|
E|--------------------------------------------------------------------|

Chorus Cont.
e|-0-0-0-0-0-0-0-0--0-0-0-0-0-0-0-0-----------------------------------|
 |-5-4-0-5-4-0-5-4--5-4-0-5-4-0-5-4-----0----0-----0----0----0--------|
 |-----------------------------------1h2--1h2---1h2--1h2--1h2--1-2----|
 |-----------------------------------------------------------------2~-|
 |-----------------------------------------------------------------2~-|
E|-----------------------------------------------------------------2~-|

Verse - "I won't forget the day that..." (X2)
e|-----0000-0000-0000-----0000-0000-0000-----0000-0000-0000-----0000-0000-0000-|
 |-----5555-4444-2222-----5555-4444-2222-----5555-4444-2222-----5555-4444-7777-|
 |-----------------------------------------------------------------------------|
 |-444----------------444----------------222----------------222----------------|
 |-444----------------444----------------222----------------222----------------|
E|-444----------------444----------------222----------------222----------------|

Pre-Chorus - "Love me back to the bliss of ignorance..." (X2)
e|-0-00-0-00-0-0-00-0-00-0-0-0-0--00-0-000000000-|
 |-4h55-4h55-7-4h55-4h55-7-101010-99-7-555555555-|
 |-----------------------------------------------|
 |-----------------------------------------------|
 |-----------------------------------------------|
E|-----------------------------------------------|

Repeat Chorus
Repeat Verse
Repeat Pre Chorus
Repeat Chorus

Bridge                     "I stand outside my pretty house..."
e|----------------------------------------------------------------------------|
 |----------------------------------------------------------------------------|
 |-------------------------666-6-666-6-6666-----------------------------------|
 |-7~--7-2~----7~--7-2~----666-6-666-6-6666-777-7-777-7-7777-222-2-222-2-2222-|
 |-7~--7-2~----7~--7-2~----444-4-444-4-4444-777-7-777-7-7777-222-2-222-2-2222-|
E|-7~--7/2~----7~--7/2~---------------------777-7-777-7-7777-222-2-222-2-2222-|
PM                         ... . ... . .... ... . ... . .... ... . ... . ....
                    |"I call the cops to let them know..."
e|------------------|--------------------------------------------------------------|
 |------------------|--------------------------------------------------------------|
 |------------------|-666-6-666-6-6666---------------------------------------------|
 |-222-2-222-2-2222-|-666-6-666-6-6666-777-7-777-7-7777-222-2-222-2-2222-222-2-222-|
 |-222-2-222-2-2222-|-444-4-444-4-4444-777-7-777-7-7777-222-2-222-2-2222-222-2-222-|
E|-222-2-222-2-2222-|------------------777-7-777-7-7777-222-2-222-2-2222-222-2-222-|
PM ... . ... . ....   ... . ... . .... ... . ... . .... ... . ... . .... ... . ...

          |"I thought I wanted this, I thought..."
e|--------|--------------------------------------------------------------------------|
 |--------|--------------------------------------------------------------------------|
 |--------|-6-6666-6-6666-6-66-------------------------------------------------------|
 |-2-2222-|-6-6666-6-6666-6-66-7-7777-7-7777-7-77-2-2222-2-2222-2-22-2-2222-2-2222-2-|
 |-2-2222-|-4-4444-4-4444-4-44-7-7777-7-7777-7-77-2-2222-2-2222-2-22-2-2222-2-2222-2-|
E|-2-2222-|--------------------7-7777-7-7777-7-77-2-2222-2-2222-2-22-2-2222-2-2222-2-|
PM . ....     ....   ....   ..   ....   ....   ..   ....   ....   ..   ....   ....

e|--------------------------------------------------------------------------|
 |--------------------------------------------------------------------------|
 |-6-6666-6-6666-6-66-------------------------------------------------------|
 |-6-6666-6-6666-6-66-7-7777-7-7777-7-77-2-22222222-2-----------------------|
 |-4-4444-4-4444-4-44-7-7777-7-7777-7-77-2-22222222-2-----------------------|
E|--------------------7-7777-7-7777-7-77-2-22222222-2-----------------------|
PM   ....   ....   ..   ....   ....   ..   ........

Ending - "I said I wanted some more attention..." (X2)
e|------------------------------------|
 |------------------------------------|
 |-6666-6-----------------------------|
 |-6666-6---77-7-7---2222-2--22-2-2---|
 |-4444-4/--77-7-7---2222-2--22-2-2---|
E|----------77-7-7/--2222-2~-22-2-2/--|

Ending Part 2 - "I think that the truth is im scared..." (X2)
e|-----------------------------------|
 |-----------------------------------|
 |-66666666--------------------------|
 |-66666666-77-7777-22222222-22-2222-|
 |-44444444-77-7777-22222222-22-2222-|
E|----------77-7777-22222222-22-2222-|

Ending Part 3
e|-------------------|
 |-------------------|
 |-------------------|
 |-11~-----7~-----2~-|
 |-11~-----7~-----2~-|
E|-11~-----7~-----2~-|
Добавлено: 06.06.2013
Другие материалы по этой песне:
  • Аккорды и текст

Страница создана 24.05.2012
http://primanota.ru/senses-fail/angela-baker-and-my-obsession-with-fire-chords.htm
Привет, Гость.
Предлагаем пройти революционный курс по гитаре.
Подарок от PrimaNota.Ru, забирай!