PrimaNota.ru - самый крупный в мире бесплатный архив песенных текстов, аккордов, табулатур и нот


Sense Field - You Own Me - текст песни, таба, видео

Регистрация Запомнить меня
Войти через:  Facebook Google Twitter Vk Yandex Mail.ru

Sense Field - You Own Me - текст песни, таба, видео

Печатать
Просмотров: 130
Уроки эстрадного вокала в Санкт-Петербурге
You own me by Sense Field

Tabbed by SuperBeef (SuperBeefTabs@gmail.com)

This tab is my interpretation of others work, and is not for commercial use.  

Dropped D Tuning DADGBE

There are up to three guitars in this song, i have tabbed them all where possible.


Intro

Guitar 1

e|---1-4-2-2-|
b|-2---------|
G|-----------|
D|-----------|
A|-----------|
D|-----------|

        x4




e|---1-4-2-2-|---1-4-2-2-|
b|-2---------|-0---------|
G|-----------|-----------|
D|-----------|-----------|
A|-----------|-----------|
D|-----------|-----------|

        x2      x2

e|-----1-----|-----------|
b|---2---2-2-|---2-2-2---|
G|-1---------|-1---------|
D|-----------|-----------|
A|-----------|-----------|
D|-----------|-----------|

Verse

Guitar 2 plays throughout until fill

    C#5   B5   F#5

e|-----|-----|-----|
b|-----|-----|-----|
G|--6--|--4--|-----|
D|--6--|--4--|--4--|
A|--4--|--2--|--4--|
D|-----|-----|--4--|



Guitar 1

e|---1-4-2-2-|---1-4-2-2-|
b|-2---------|-0---------|
G|-----------|-----------|
D|-----------|-----------|
A|-----------|-----------|
D|-----------|-----------|

        x2      x2

e|-----1-----|-----------|
b|---2---2-2-|---2-2-2---|
G|-1---------|-1---------|
D|-----------|-----------|
A|-----------|-----------|
D|-----------|-----------|

You say it's nothing personal
As you break out 
And you lay out your whole arsenal
 

e|---1-4-2-2-|-2-1-4-6-6-|---1-4-2-2-|
b|-2---------|-----------|-0---------|
G|-----------|-----------|-----------|
D|-----------|-----------|-----------|
A|-----------|-----------|-----------|
D|-----------|-----------|-----------|

                                x2

I fell hard for you
I count scars from you

Fill 

Guitar 2

e|---------------|
b|---------------|
G|---------------|
D|---------------|
A|-4-6-8-9-11-12-|
D|---------------|

Pre Chorus


You play with my life
And I pay with my life

Chorus


Guitar 1

e|-17-16-17-11-|
b|-------------|
G|-------------|
D|-------------|
A|-------------|
D|-------------|

Repeat x4

Guitar 2

    D5    E5   B5   G#5
    
e|-----|-----|-----|-----|
b|-----|-----|-----|-----|
G|-----|-----|-----|-----|
D|--0--|--2--|--9--|--6--|
A|--0--|--2--|--9--|--6--|
D|--0--|--2--|--9--|--6--|

Everything keeps telling me to run away
Now you own me
And everything keeps telling me to run, run away
Now you own me
And everything keeps telling me to run, run, run
I never listen
And everything keeps telling me to run, run away
Now you own me
Now you own me


Verse

Guitar 2 throughout until fill

    C#5   B5   F#5

e|-----|-----|-----|
b|-----|-----|-----|
G|--6--|--4--|-----|
D|--6--|--4--|--4--|
A|--4--|--2--|--4--|
D|-----|-----|--4--|


-Another third guitar comes in here which i can't quite work out but sounds like

Guitar 3

e|-1-2-4-2-1-2-|
b|-------------|
G|-------------|
D|-------------|
A|-------------|
D|-------------|


I hate it how I let it control me from so far away
I can't wait for the day
You won't be able to say


Guitar 1 (Doesn't play until now)

e|---1-4-2-2-|-2-1-4-6-6-|---1-4-2-2-|
b|-2---------|-----------|-0---------|
G|-----------|-----------|-----------|
D|-----------|-----------|-----------|
A|-----------|-----------|-----------|
D|-----------|-----------|-----------|

                                x2

That you made me pay
With these words that you use
And the things that you say

Fill

Guitar 2

e|---------------|
b|---------------|
G|---------------|
D|---------------|
A|-4-6-8-9-11-12-|
D|---------------|


Pre Chorus

Guitar 3

e|-2-5-12-12-11-9-7-|
b|------------------|
G|------------------|
D|------------------|
A|------------------|
D|------------------|

You whisper in my ear
You bring me to tears
You bring me to tears
 


Chorus


Guitar 1

e|-17-16-17/11-|
b|-------------|
G|-------------|
D|-------------|
A|-------------|
D|-------------|

Repeat x4

Guitar 2

    D5    E5   B5   G#5
    
e|-----|-----|-----|-----|
b|-----|-----|-----|-----|
G|-----|-----|-----|-----|
D|--0--|--2--|--9--|--6--|
A|--0--|--2--|--9--|--6--|
D|--0--|--2--|--9--|--6--|


Guitar 3


e|-2-5-9-7-5-9-7-5-2---|
b|---------------------|
G|---------------------|
D|---------------------|
A|---------------------|
D|---------------------|

e|---2-6-4-2-6-4-2-----|
b|-4---------------4---|
G|---------------------|
D|---------------------|
A|---------------------|
D|---------------------|

Everything keeps telling me to run away
Now you own me
And everything keeps telling me to run, run away
Now you own me


Guitar 3 joins in with Guitar 2 Playing Chorus Chords

And everything keeps telling me to run, run, run
I never listen
And everything keeps telling me to run, run away
Now you own me
Now you own me


Chorus Repeats Guitars 1 and 2

And everything keeps telling me to run, run, run
And everything keeps telling me to run, run, run
And everything keeps telling me to run, run, away
And everything keeps telling me to run, run, away
 
Добавлено: 08.12.2013
Другие материалы по этой песне:
  • Аккорды и текст

Страница создана 08.12.2013
http://primanota.ru/sense-field/you-own-me-chords.htm
Привет, Гость.
Предлагаем пройти революционный курс по гитаре.
Подарок от PrimaNota.Ru, забирай!