PrimaNota.ru - самый крупный в мире бесплатный архив песенных текстов, аккордов, табулатур и нот


Sense Field - Running Behind - текст песни, таба, видео

Регистрация Запомнить меня
Войти через:  Facebook Google Twitter Vk Yandex Mail.ru

Sense Field - Running Behind - текст песни, таба, видео

Печатать
Просмотров: 61
Running Behind by Sense Field

Tabbed by SuperBeef (SuperBeefTabs@gmail.com)

This tab is my interpretation of others work, and is not for commercial use.

Dropped D Tuning DADGBE

There are two guitars playing i will try to identify them both where possible. I think 
it is mostly correct though there may be one or two parts that are an octave to high, i 
can't tell.

CHORDS

        A5      C#5    G5      D5i

e|----------------------------------|
b|----------------------------------|
G|------2--------6--------------7---|
D|------2--------6------5-------7---|
A|------0--------4------5-------5---|
D|----------------------5-----------|

       E5      B5     D5ii

e|----------------------------------|
b|----------------------------------|
G|--------------4-------------------|
D|------2-------4-------0-----------|
A|------2-------2-------0-----------|
D|------2---------------0-----------|


Intro

I run, I run, I run

e|-14----14-----12----12------|-------------14----14----|
b|----14----14-----12----12---|-15-12-15-12----14----14-|
G|----------------------------|-------------------------|
D|----------------------------|-------------------------|
A|----------------------------|-------------------------|
D|----------------------------|-------------------------|

x2

With Distortion

e|-2-0----2-0------------0---|-2-0----2-0------------2---|
b|---------------0-2--0------|---------------0-2--0------|
G|---------------------------|---------------------------|
D|---------------------------|---------------------------|
A|---------------------------|---------------------------|
D|---------------------------|---------------------------|


Verse

As Intro

e|-14----14-----12----12------|-------------14----14----|
b|----14----14-----12----12---|-15-12-15-12----14----14-|
G|----------------------------|-------------------------|
D|----------------------------|-------------------------|
A|----------------------------|-------------------------|
D|----------------------------|-------------------------|

Yeah, I've run to a slow crawl
Yes, I'm the one staring straight at the wall
You've seen me sky high
So low I had to die just to stay alive


(With Distortion)


This little war with myself

A5            C#5


That I never wish it on anyone else

G5               D5i


Fill
e|-2-0-2-4/-0-------------|
b|------------------------|
G|------------------------|
D|------------------------|
A|------------------------|
D|------------------------|

PreChorus

(Turns out, turns out)
No one gets left behind
(It turns out, it turns out)
No one gets out alive
(It turns out)

e|-----------------|------------------|
b|-0-2-------2---0-|-2-2-3-2---2---0--|
G|-----2---2---2---|-------------2----|
D|-------4---------|---------4--------|
A|-----------------|------------------|
D|-----------------|------------------|



Feeling left behind now
While everyone keeps moving on

e|--4--|--5--|--7--|--9--|--10-10-10-|
b|-----|-----|-----|-----|-----------|
G|-----|-----|-----|-----|-----------|
D|-----|-----|-----|-----|-----------|
A|-----|-----|-----|-----|-----------|
D|-----|-----|-----|-----|-----------|

x16     x16   x16   x16


With Distortion

e|-2-0----2-0------------0---|-2-0----2-0------------2---|
b|---------------0-2--0------|---------------0-2--0------|
G|---------------------------|---------------------------|
D|---------------------------|---------------------------|
A|---------------------------|---------------------------|
D|---------------------------|---------------------------|


The world comes to a stand still
Yes, in a fight, not just for your life
They'll go right for your soul
It's the loneliest place you'll ever know


e|-14----14-----12----12------|-------------14----14----|
b|----14----14-----12----12---|-15-12-15-12----14----14-|
G|----------------------------|-------------------------|
D|----------------------------|-------------------------|
A|----------------------------|-------------------------|
D|----------------------------|-------------------------|

Too afraid to say that you're scared

A5               C#5


To the point that you couldn't even care

G5               D5i



Fill
e|-2-0-2-4/-0---------------|
b|--------------------------|
G|--------------------------|
D|--------------------------|
A|--------------------------|
D|--------------------------|

PreChorus

(Turns out, turns out)
No one gets left behind
(It turns out, it turns out)
No one gets out alive
(It turns out)

e|-----------------|------------------|
b|-0-2-------2---0-|-2-2-3-2---2---0--|
G|-----2---2---2---|---------4---2----|
D|-------4---------|------------------|
A|-----------------|------------------|
D|-----------------|------------------|


Feeling left behind now
While everyone keeps moving on

e|--4--|--5--|--7--|--9--|--10-10-10-|
b|-----|-----|-----|-----|-----------|
G|-----|-----|-----|-----|-----------|
D|-----|-----|-----|-----|-----------|
A|-----|-----|-----|-----|-----------|
D|-----|-----|-----|-----|-----------|


x16     x16   x16   x16  (X2)


BRIDGE

While everyone keeps moving on
Is anyone really moving on?


e|-14----14-----16----16------|-19----19----14----14----|
b|----14----14-----14----14---|----14----14----14----14-|
G|----------------------------|-------------------------|
D|----------------------------|-------------------------|
A|----------------------------|-------------------------|
D|----------------------------|-------------------------|


Guitar 2 in Background

A5 C#5 G5 D5ii (Palm Muted)
A5 E5  G5 B5


SOLO (Not exact number of notes)

e|-2-0---------|-2-0---0---0-|-2-0---------|-------------|
b|-----3-2-0---|-----3---3---|-----3-2-0---|-3-2-0-------|
G|-----------2-|-------------|-----------2-|-------2---2-|
D|-------------|-------------|-------------|---------4---|
A|-------------|-------------|-------------|-------------|
D|-------------|-------------|-------------|-------------|

I run, I run, I run

e|--5--|--4--|--3--|--2--|--0--|--4--|--3--|--2--|
b|-----|-----|-----|-----|-----|-----|-----|-----|
G|-----|-----|-----|-----|-----|-----|-----|-----|
D|-----|-----|-----|-----|-----|-----|-----|-----|
A|-----|-----|-----|-----|-----|-----|-----|-----|
D|-----|-----|-----|-----|-----|-----|-----|-----|

   x8     x8    x8    x8   x8    x8    x8    x8

OUTRO

While everyone keeps moving on
While everyone keeps moving on
Is anyone really moving on?

I think some sort of tremolo and delay effect is used.


e|----14-------14--------|----14-------14--------|
b|-------14-------14-----|-------14-------14-----|
G|-14-------14-------14--|-13-------13-------13--|
D|-----------------------|-----------------------|
A|-----------------------|-----------------------|
D|-----------------------|-----------------------|


e|----14-------14--------|----14-------14--------|
b|-------14-------14-----|-------14-------14-----|
G|-12-------12-------12--|-12-------12-------12--|
D|-----------------------|-----------------------|
A|-----------------------|-----------------------|
D|-----------------------|-----------------------|

x4

Really moving on, really moving on

e|----------|
b|-3--------|
G|-----0----|
D|---4---4--|
A|----------|
D|----------|

Repeat until end on A5.

END
Добавлено: 18.06.2013
Вам также может быть интересно:
Другие материалы по этой песне:
  • Аккорды и текст

Страница создана 18.06.2013
http://primanota.ru/sense-field/running-behind-chords.htm
Привет, Гость.
Предлагаем пройти революционный курс по гитаре.
Подарок от PrimaNota.Ru, забирай!