PrimaNota.ru - самый крупный в мире бесплатный архив песенных текстов, аккордов, табулатур и нот


Sense Field - On Your Own - текст песни, таба, видео

Регистрация Запомнить меня
Войти через:  Facebook Google Twitter Vk Yandex Mail.ru

Sense Field - On Your Own - текст песни, таба, видео

Печатать
Просмотров: 75
On Your Own by Sense Field

Tabbed by SuperBeef (SuperBeefTabs@gmail.com)

This tab is my interpretation of others work, and is not for commercial use.

I believe there are two guitars.

The guitar that plays the chords (Noted as Guitar 2) is tuned to Dropped D Tuning DADGBE

Intro


e|-7---7---7---9-|-11---11---11---9--|-----------------|
b|---7---7---7---|----7----7----7----|-9-9-9-9-9-9-9-9-|
G|---------------|-------------------|-9-9-9-9-9-9-9-9-|
D|---------------|-------------------|-9-9-9-9-9-9-9-9-|
A|---------------|-------------------|-7-7-7-7-7-7-7-7-|
D|---------------|-------------------|-----------------|
                           x2

Fill 1

Guitar 1

e|-7-9-14-11-9~------|-7-9-14-11-16~---|
b|-------------------|-----------------|
G|-------------------|-----------------|
D|-------------------|-----------------|
A|-------------------|-----------------|
D|-------------------|-----------------|

Guitar 2

   B5   F#5    C#5    E5

e|-----|-----|-----|-----|
b|-----|-----|-----|-----|
G|--4--|-----|--6--|--9--|
D|--4--|--4--|--6--|--9--|
A|--2--|--4--|--4--|--7--|
D|-----|--4--|-----|-----|

Verse

There's a reflection that's so hard to see
Reflections in water of what you could be
Wave crashes over, tides pull you under
If you've ever wondered why you barely breathe

e|-----|-----|
b|-----|-----|
G|--4--|--6--|
D|--4--|--6--|
A|--2--|--4--|
D|-----|-----|

Chorus

All of the ways I wish that I couldve shown you
All of the things that I want you to know right now
All the ways I wish I could protect you
From all the things that youll learn on your own somehow


   B5   F#5    C#5    E5

e|-----|-----|-----|-----|
b|-----|-----|-----|-----|
G|--4--|-----|--6--|--9--|
D|--4--|--4--|--6--|--9--|
A|--2--|--4--|--4--|--7--|
D|-----|--4--|-----|-----|

x2

Solo/Fill 2

e|-7-9-14-11-9~---|
b|----------------|
G|----------------|
D|----------------|
A|----------------|
D|----------------|

x2

Verse

Guitar 1

e|-7---7---7---9-|-11---11---11---9--|
b|---7---7---7---|----7----7----7----|
G|---------------|-------------------|
D|---------------|-------------------|
A|---------------|-------------------|
D|---------------|-------------------|

                        x3



e|-7---7---7-------|---7---7---7---9-|-11---11---11---9--|
b|---7---7---7-4-7-|-4---4---4---7---|----7----7----7----|
G|-----------------|-----------------|-------------------|
D|-----------------|-----------------|-------------------|
A|-----------------|-----------------|-------------------|
D|-----------------|-----------------|-------------------|

Guitar 2

e|-----|-----|
b|--4--|--6--|
G|--4--|--6--|
D|--4--|--6--|
A|--2--|--4--|
D|-----|-----|

As you grow older and youve lived through a war
Before you know it the eyes of a storm
Will rain upon you
Not like you ever knew
No like youve never seen
Like never before

Chorus

Guitar 1

e|-7---7---7---9-|-11---11---11---9--|
b|---7---7---7---|----7----7----7----|
G|---------------|-------------------|
D|---------------|-------------------|
A|---------------|-------------------|
D|---------------|-------------------|

                        x3

Guitar 2

   B5   F#5    C#5    E5

e|-----|-----|-----|-----|
b|-----|-----|-----|-----|
G|--4--|-----|--6--|--9--|
D|--4--|--4--|--6--|--9--|
A|--2--|--4--|--4--|--7--|
D|-----|--4--|-----|-----|

x2

All of the ways I wish that I couldve shown you
All of the things that I want you to know right now
All the ways I wish I could protect you
From all the things that youll learn on your own somehow

Solo

Guitar 1

e|---0-2-5-7---9---5-7---9~--5-2-5----2-----|
b|-0------------------------------------5/2-|
G|------------------------------------------|
D|------------------------------------------|
A|------------------------------------------|
D|------------------------------------------|

e|---0-2-5-2---7b---3-5---7~------5--6------|
b|-0----------------------------------------|
G|------------------------------------------|
D|------------------------------------------|
A|------------------------------------------|
D|------------------------------------------|

Guitar 2


   A5     E5    G5    D5

e|-----|-----|-----|-----|
b|-----|-----|-----|-----|
G|--2--|-----|-----|-----|
D|--2--|--2--|--5--|--0--|
A|--0--|--2--|--5--|--0--|
D|-----|--2--|--5--|--0--|


   A5     E5    G5   F#5

e|-----|-----|-----|-----|
b|-----|-----|-----|-----|
G|--2--|-----|-----|-----|
D|--2--|--2--|--5--|--4--|
A|--0--|--2--|--5--|--4--|
D|-----|--2--|--5--|--4--|


Solo Part 2

Guitar 1

e|-7---9-11--9-11--9-11---11h12p11--9h10p9--2-|
b|--------------------------------------------|
G|--------------------------------------------|
D|--------------------------------------------|
A|--------------------------------------------|
D|--------------------------------------------|


e|-7---9-11--9-11--9-14-----------------------|
b|--------------------------------------------|
G|--------------------------------------------|
D|--------------------------------------------|
A|--------------------------------------------|
D|--------------------------------------------|

Guitar 2

   B5   F#5    C#5    E5        Until End

e|-----|-----|-----|-----|
b|-----|-----|-----|-----|
G|--4--|-----|--6--|--9--|
D|--4--|--4--|--6--|--9--|
A|--2--|--4--|--4--|--7--|
D|-----|--4--|-----|-----|


These ugly places I dont want you to see
These smiling faces I dont want you to meet
Your hearts extended out
Theyll try and tear it out
Youll never be without
The love thats between you and me


Chorus

Guitar 1

e|-7---9-11--9-11--9-11---11h12p11--9h10p9--2-|
b|--------------------------------------------|
G|--------------------------------------------|
D|--------------------------------------------|
A|--------------------------------------------|
D|--------------------------------------------|


e|-7---9-11--9-11--9-14-----------------------|
b|--------------------------------------------|
G|--------------------------------------------|
D|--------------------------------------------|
A|--------------------------------------------|
D|--------------------------------------------|

All of the ways I wish that I couldve shown you
All of the things that I want you to know right now
All the ways I wish I could protect you
From all of the things that youll learn on your own somehow


Outro

Guitar 1

e|-7-9-14-11-9~------|-7-9-14-11-16~---|
b|-------------------|-----------------|
G|-------------------|-----------------|
D|-------------------|-----------------|
A|-------------------|-----------------|
D|-------------------|-----------------|

Learn on your own
Learn on your own somehow

End on A

END


************************************

| /   slide up
| \   slide down
| h   hammer-on
| p   pull-off
| ~   vibrato
| +   harmonic
| x   Mute note
| b   Bend
| pb  Pre-bend
| br  Bend release
| pbr Pre-bend release
| brb Bend release bend

************************************
Добавлено: 23.09.2013
Другие материалы по этой песне:
  • Аккорды и текст

Страница создана 23.09.2013
http://primanota.ru/sense-field/on-your-own-chords.htm
Привет, Гость.
Предлагаем пройти революционный курс по гитаре.
Подарок от PrimaNota.Ru, забирай!