PrimaNota.ru - самый крупный в мире бесплатный архив песенных текстов, аккордов, табулатур и нот


Sense Field - Memory - таба, видео

Регистрация Запомнить меня
Войти через:  Facebook Google Twitter Vk Yandex Mail.ru

Sense Field - Memory - таба, видео

Печатать
Просмотров: 87
Memory by Sense Field

Tabbed by SuperBeef (SuperBeefTabs@gmail.com)

This tab is my interpretation of others work, and is not for commercial use.  

Standard Tuning EADGBE


Intro

 
   B5  F#5  C#5 F#5 B5 F#5 C#5

e|-------------|-------------|
b|-------------|-------------|
G|-4-4-----6-6-|---4-4---6-6-|
D|-4-4-4-4-6-6-|-4-4-4-4-6-6-|
A|-2-2-4-4-4-4-|-4-2-2-4-4-4-|
E|-----2-2-----|-2-----2-----|


   E5   A5      F#5 C#5 E5 B5

e|-------------|---------------|
b|-------------|---------------|
G|-9-9-2-2-2-2-|---6-6-9-9-4-4-|
D|-9-9-2-2-2-2-|-4-6-6-9-9-4-4-|
A|-7-7-0-0-0-0-|-4-4-4-7-7-2-2-|
E|-------------|-2-------------|

Verse



'Like a disease eating away at me'

    B5   F#5   A5     A5   

e|-----|-----|-----|-----|
b|-----|-----|-----|-----|
G|--4--|-----|--2--|--2--|
D|--4--|--4--|--2--|--2--|
A|--2--|--4--|--0--|--0--|
E|-----|--2--|-----|-----|

   x8    x8    x8    x8

Then

Fill 1

e|---------|
b|---------|
G|---------|
D|---------|
A|-7-5-3-2-|
E|---------|


'You're just another drug I'm an addict of'

e|-----|-----|-----|-----|
b|-----|-----|-----|-----|
G|--4--|-----|--2--|--2--|
D|--4--|--4--|--2--|--2--|
A|--2--|--4--|--0--|--0--|
E|-----|--2--|-----|-----|

   x8    x8    x8    x8


Then

Fill 1

e|---------|
b|---------|
G|---------|
D|---------|
A|-7-5-3-2-|
E|---------|

'I can't play your fucked up guessing game'

e|-----|-----|-----|-----|
b|-----|-----|-----|-----|
G|--4--|-----|--2--|--2--|
D|--4--|--4--|--2--|--2--|
A|--2--|--4--|--0--|--0--|
E|-----|--2--|-----|-----|

   x8    x8    x8    x8

Then

Fill 2

e|---------|
b|---------|
G|---------|
D|---------|
A|-2-3-4---|
E|---------|

'Jealous and out of my head'

e|-----|-----|-----|-----|
b|-----|-----|-----|-----|
G|--4--|-----|--2--|--2--|
D|--4--|--4--|--2--|--2--|
A|--2--|--4--|--0--|--0--|
E|-----|--2--|-----|-----|

   x8    x8    x8    x8

Fill 3 (Repeat) 

e|---5-2---2-1-0-|
b|-3-------------|
G|---------------|
D|---------------|
A|---------------|
E|---------------|


Pre Chorus


'Cause I know why you want me around
 So you've got someone to push around'


e|-----|-----|-----|-----|
b|-----|-----|-----|-----|
G|--4--|-----|--2--|--2--|
D|--4--|--4--|--2--|--2--|
A|--2--|--4--|--0--|--0--|
E|-----|--2--|-----|-----|

   x8    x8    x8    x8

Chorus

Guitar 1

   F#5   A5    C5    G5

e|-----|-----|-----|-----|
b|-----|-----|-----|-----|
G|-----|--2--|--5--|-----|
D|--4--|--2--|--5--|--5--|
A|--4--|--0--|--3--|--5--|
E|--2--|-----|-----|--3--|

   x8    x8    x8    x8

Guitar 2


e|-2-2-2-5---2-2-2-3-2-----|
b|---------------------3-0-|
G|-------------------------|
D|-------------------------|
A|-------------------------|
E|-------------------------|

'And when I'm free, you're nothing but a memory
And when I'm free, you're nothing but a memory
And when I'm free, you're nothing but a memory
I hope my memory fades
 

Repeat Verse and Chorus all the way from intro.

You'll always hold a place inside my heart
I'll tear it out of me so I can start
To feel alive instead of dead inside
Fucked up and out of my head

There is an additional Fill at the end of the second verse.
 
 
e|-------------------------|
b|-0-0-4-0-4---0-0-4-0-4---|
G|-------------------------|
D|-------------------------|
A|-------------------------|
E|-------------------------|

e|-------------------------|
b|-0-0-5-0-5---0-0-3-0-3---|
G|-------------------------|
D|-------------------------|
A|-------------------------|
E|-------------------------|

Then Repeat Chorus

And when I'm free, you're nothing but a memory
And when I'm free, you're nothing but a memory
And when I'm free, you're nothing but a memory
I hope my memory fades'


'Solo'

Play each note about seven times (I think you slide inbetween)


e|-2-|-5-|-7-|-10-|
b|---|---|---|----|
G|---|---|---|----|
D|---|---|---|----|
A|---|---|---|----|
E|---|---|---|----|


e|-2-|-5-|-7-|-10-|-14-|-17-|-15-|-10-|
b|---|---|---|----|----|----|----|----|
G|---|---|---|----|----|----|----|----|
D|---|---|---|----|----|----|----|----|
A|---|---|---|----|----|----|----|----|
E|---|---|---|----|----|----|----|----|

'Fades away
Fades away
Fades away
Fades away
Fades away
Fades away
Fades away'
 

Outro 

Strum up and down chords

    D     E     C     G

e|--5--|--7--|--3--|--3--|
b|--7--|--9--|--5--|--3--|
G|--7--|--9--|--5--|--4--|
D|--7--|--9--|--5--|--5--|
A|--5--|--7--|--3--|--5--|
E|-----|-----|-----|--3--|

'I hope my memory fades
I hope my memory fades
I hope my memory fades
I hope my memory fades
I hope my memory fades'

END

 
************************************

| /   slide up
| \   slide down
| h   hammer-on
| p   pull-off
| ~   vibrato
| +   harmonic
| x   Mute note
| b   Bend
| pb  Pre-bend
| br  Bend release
| pbr Pre-bend release
| brb Bend release bend

************************************
 
Добавлено: 18.08.2013
Другие материалы по этой песне:
  • Аккорды и текст

Страница создана 18.08.2013
http://primanota.ru/sense-field/memory-chords.htm
Привет, Гость.
Предлагаем пройти революционный курс по гитаре.
Подарок от PrimaNota.Ru, забирай!