PrimaNota.ru - самый крупный в мире бесплатный архив песенных текстов, аккордов, табулатур и нот


Sense Field - Burn - текст песни, таба, видео

Регистрация Запомнить меня
Войти через:  Facebook Google Twitter Vk Yandex Mail.ru

Sense Field - Burn - текст песни, таба, видео

Печатать
Просмотров: 78
Burn by Sense Field

Tabbed by SuperBeef (SuperBeefTabs@gmail.com)

This tab is my interpretation of others work, and is not for commercial use.  

Dropped D Tuning DADGBE

CHORDS

        B       D    D5i  E5   F#5

e|------------------------------------|
b|------4-------7---------------------|
G|------4-------7---------------------|
D|------4-------7-----0---2-----4-----|
A|------2-------5-----0---2-----4-----|
D|--------------------0---2-----4-----|

        
        A5     B5      C#5     D5ii

e|-----------------------------------|
b|-----------------------------------|
G|------2-------4-------6-------7----|
D|------2-------4-------6-------7----|
A|------0-------2-------4-------5----|
D|-----------------------------------|




Verse


I got up, made it through the day


I thought of what I want to say, I know I will lie to try

                                (Guitar Starts Here)
                                 B       D       D5i  B5

Just to win you back so you'll cry

F#5                          D5i           B5


When I hurt you back, it's your turn to burn

F#5                               B5      D5ii


Chorus (with distortion)

Cause it helps me move on
                
D5             B5

Like you said, you did

F#5                     D5

It helps me be strong

        B5

Like I heard, you were

F#5


Verse

Doing great, I can't help but to feel replaced



I know I, I try to hide, it shows in my face

        B        D       D5i  B5 F#5


When I, see who took my place

D5i  B5 F#5

You'll learn to burn

         B5       D5ii

Pre/Chorus

Cause it helps me move on


Like you said, you did


And it helps me be strong

         D5       B5

Like I heard, you were

F#5


Bridge


F#5 A5 D5ii

No I don't want to meet you to talk

C#5                     E5

So stop coming by my work

                 A5

I don't want to see you
                  
                      F#5


No I don't want to pretend
     
         E5

Like everything's good in the end

                        A5

I still don't believe you



Solo

e|-------0---2-|-2-4-5-7---5-9-7--5-9-5--2-4-3-2-|
b|-3-----------|---------------------------------|
G|-------------|---------------------------------|
D|-------------|---------------------------------|
A|-------------|---------------------------------|
D|-------------|---------------------------------|

e|-7---5-9-7-5---9-5-4-3-|
b|-----------------------|
G|-----------------------|
D|-----------------------|
A|-----------------------|
D|-----------------------|


e|-9-10-9---6-7-9-9-4-3----9-10-9------|
b|-------------------------------------|
G|-------------------------------------|
D|-------------------------------------|
A|-------------------------------------|
D|-------------------------------------|

I woke up and made it through the day
I thought of what you always say
And silence doesn't ease the pain
Violence wouldn't solve a thing
I'll learn to burn, I'll learn to burn
I'll learn to burn


Repeat Chorus

End
Добавлено: 01.09.2013
Другие материалы по этой песне:
  • Аккорды и текст

Страница создана 01.09.2013
http://primanota.ru/sense-field/burn-chords.htm
Привет, Гость.
Предлагаем пройти революционный курс по гитаре.
Подарок от PrimaNota.Ru, забирай!