PrimaNota.ru - самый крупный в мире бесплатный архив песенных текстов, аккордов, табулатур и нот


Sensations Fix - Substance Of You - таба, видео

Регистрация Запомнить меня
Войти через:  Facebook Google Twitter Vk Yandex Mail.ru

Sensations Fix - Substance Of You - таба, видео

Печатать
Просмотров: 78
ARTIST: Sensations' Fix
SONG: "Substance of You"
ALBUM: Antidote (1989)



TUNING: Half-step Sharp F A# D# G# C F (capo on 1st fret, mastered with tape sped up, tuned sharp) 



VERSE:
    Gm                      Cm                      G#m                     D#
F |-2--2--2--2--2--2--2--2--2--2--2--2--2--2--2--2--3--3--3--3--3--3--3--3--2--2--2--2--2--2--2--2-|
C |-2--2--2--2--2--2--2--2--3--3--3--3--3--3--3--3--3--3--3--3--3--3--3--3--3--3--3--3--3--3--3--3-|
G#|-2--2--2--2--2--2--2--2--4--4--4--4--4--4--4--4--3--3--3--3--3--3--3--3--2--2--2--2--2--2--2--2-|
D#|-4--4--4--4--4--4--4--4--4--4--4--4--4--4--4--4--5--5--5--5--5--5--5--5--0--0--0--0--0--0--0--0-|
A#|-4--4--4--4--4--4--4--4--2--2--2--2--2--2--2--2--5--5--5--5--5--5--5--5-------------------------|
F |-2--2--2--2--2--2--2--2--------------------------3--3--3--3--3--3--3--3-------------------------|



CHORUS I:
    A#                                  D#    C     A#                                  D#    C
F |------------------------------------------------------------------------------------------------|
C |------------------------------------------------------------------------------------------------|
G#|------------------------------------------------------------------------------------------------|
D#|-2--2--4--2--2--2--4--2--2--2--4--2--7--7--4--0--2--2--4--2--2--2--4--2--2--2--4--2--7--7--4--0-|
A#|-0--0--0--0--0--0--0--0--0--0--0--0--5--5--2--0--0--0--0--0--0--0--0--0--0--0--0--0--5--5--2--0-|
F |------------------------------------------------------------------------------------------------|



CHORUS II:
    A#                                  A           A#                                  A
F |------------------------------------------------------------------------------------------------|
C |------------------------------------------------------------------------------------------------|
G#|------------------------------------------------------------------------------------------------|
D#|-2--2--4--2--2--2--4--2--2--2--4--2--7--7--7--0--2--2--4--2--2--2--4--2--2--2--4--2--7--7--7--0-|
A#|-0--0--0--0--0--0--0--0--0--0--0--0--7--7--7--0--0--0--0--0--0--0--0--0--0--0--0--0--7--7--7--0-|
F |-------------------------------------5--5--5--0--------------------------------------5--5--5--0-|



BRIDGE:
    D#                      Gm                      F                       G#m
F |-2--2--2--2--2--2--2--2--2--2--2--2--2--2--2--2--0--0--0--0--0--0--0--0--3--3--3--3--3--3--3--3-|
C |-3--3--3--3--3--3--3--3--2--2--2--2--2--2--2--2--0--0--0--0--0--0--0--0--3--3--3--3--3--3--3--3-|
G#|-2--2--2--2--2--2--2--2--2--2--2--2--2--2--2--2--0--0--0--0--0--0--0--0--3--3--3--3--3--3--3--3-|
D#|-0--0--0--0--0--0--0--0--4--4--4--4--4--4--4--4--2--2--2--2--2--2--2--2--5--5--5--5--5--5--5--5-|
A#|-------------------------4--4--4--4--4--4--4--4--2--2--2--2--2--2--2--2--5--5--5--5--5--5--5--5-|
F |-------------------------2--2--2--2--2--2--2--2--0--0--0--0--0--0--0--0--3--3--3--3--3--3--3--3-|



SONG STRUCTURE:

VERSE x 2
CHORUS I x 2
VERSE x 4
CHORUS II x 2
VERSE x 4 (w/ solo)
CHORUS II x 2 (w/ solo)
BRIDGE x 2
CHORUS x 2
VERSE x 1
BRIDGE x 1



That's it.  Please leave any comments, questions, or requests.  Cheers!
-Bennyshambles78-


Добавлено: 05.12.2015
Другие материалы по этой песне:
  • Аккорды и текст

Страница создана 05.12.2015
http://primanota.ru/sensations-fix/substance-of-you-chords.htm
Привет, Гость.
Предлагаем пройти революционный курс по гитаре.
Подарок от PrimaNota.Ru, забирай!