PrimaNota.ru - самый крупный в мире бесплатный архив песенных текстов, аккордов, табулатур и нот


Sensations Fix - Strange About Your Hands - таба, видео

Регистрация Запомнить меня
Войти через:  Facebook Google Twitter Vk Yandex Mail.ru

Sensations Fix - Strange About Your Hands - таба, видео

Печатать
Просмотров: 94
Уроки эстрадного вокала в Санкт-Петербурге
ARTIST: Sensations' Fix
SONG: "Strange About Your Hands"
ALBUM: Finest Finger (1976)



TUNING: Standard



INTRO/INTERLUDE:
E|------------------------------------------------------------------------|
B|------------------------------------------------------------------------|
G|-------------0-----------------------------------0----------------------|
D|-------5-----------5-----------5-----------3-----------3-----------3----|
A|-3-----------------------3-----------4-----------------------4----------|
E|------------------------------------------------------------------------|
+
E|------------------------------------------------------------------------|
B|------------------------------------------------------------------------|
G|-------------0-----------------------------------0----------------------|
D|-------5-----------5-----------5-----------3-----------3-----------3----|
A|-3-----------------------3-----------6-----------------------6----------|
E|------------------------------------------------------------------------|
+
E|------------------------------------------------------------------------|
B|------------------------------------------------------------------------|
G|-------------0-----------------------------------0----------------------|
D|-------5-----------5-----------5-----------3-----------3-----------3----|
A|-3-----------------------3-----------4-----------------------4----------|
E|------------------------------------------------------------------------|
+
E|------------------------------------------------------------------------|
B|------------------------------------------------------------------------|
G|-------------0-----------------------------------0----------------------|
D|-------5-----------5-----------5-----------3-----------3-----------3----|
A|-3-----------------------3-----------6-----------------------6----------|
E|------------------------------------------------------------------------|



VERSE:
E|------------------------------------------------------------------------|
B|------------------------------------------------------------------------|
G|-------------0-----------------------------------0----------------------|
D|-------5-----------5-----------5-----------3-----------3-----------3----|
A|-3-----------------------3-----------4-----------------------4----------|
E|------------------------------------------------------------------------|
+
E|------------------------------------------------------------------------|
B|------------------------------------------------------------------------|
G|-------------0-----------------------------------0----------------------|
D|-------5-----------5-----------5-----------3-----------3-----------3----|
A|-3-----------------------3-----------6-----------------------6----------|
E|------------------------------------------------------------------------|
+
E|------------------------------------------------------------------------|
B|------------------------------------------------------------------------|
G|-------------0-----------------------------------0----------------------|
D|-------5-----------5-----------5-----------3-----------3-----------3----|
A|-3-----------------------3-----------4-----------------------4----------|
E|------------------------------------------------------------------------|
+
E|------------------------------------------------------------------------|
B|------------------------------------------------------------------------|
G|-------------0-----------------------------------0----------------------|
D|-------5-----------5-----------5-----------3-----------3-----------3----|
A|-3-----------------------3-----------6-----------------------6----------|
E|------------------------------------------------------------------------|
+
E|------------------------------------------------------------------------|
B|------------------------------------------------------------------------|
G|-------------0-----------------------------------0----------------------|
D|-------5-----------5-----------5-----------3-----------3-----------3----|
A|-3-----------------------3-----------4-----------------------4----------|
E|------------------------------------------------------------------------|
+
E|------------------------------------------------------------------------|
B|------------------------------------------------------------------------|
G|-------------0-----------------------------------0----------------------|
D|-------5-----------5-----------5-----------3-----------3-----------3----|
A|-3-----------------------3-----------6-----------------------6----------|
E|------------------------------------------------------------------------|
+
E|------------------------------------------------------------------------|
B|------------------------------------------------------------------------|
G|-------------0-----------------------------------0----------------------|
D|-------5-----------5-----------5-----------3-----------3-----------3----|
A|-3-----------------------3-----------4-----------------------4----------|
E|------------------------------------------------------------------------|
+
E|------------------------------------------------------------------------|
B|------------------------------------------------------------------------|
G|-------------0-----------------------------------0----------------------|
D|-------5-----------5-----------5-----------3-----------3-----------3----|
A|-3-----------------------3-----------6-----------------------6----------|
E|------------------------------------------------------------------------|



CHORUS:
E|------------------------------------------------------||
B|------------------------------------------------------||
G|------------------------------------------------------|| x 8
D|-5-----------#-----5-----------#-----6-----#-----6----||
A|-3-----------#-----3-----------#-----4-----#-----4----||
E|------------------------------------------------------||



BRIDGE:
E|------------------------------------------------------------------------|
B|-8-h9-p8~---------------------------------------------------------------|
G|------------------------------------------------------------------------|
D|------------------------------------------------------------------------|
A|------------------------------------------------------------------------|
E|------------------------------------------------------------------------|
+
E|------------------------------------------------------------------------|
B|-------------------8-h9-p8----------------------------------------------|
G|-------------------------------10~---------8~---------------------------|
D|-------------------------------------------------------------10----8----|
A|------------------------------------------------------------------------|
E|------------------------------------------------------------------------|
+
E|------------------------------------------------------------------------|
B|------------------------------------------------------------------------|
G|------------------------------------------------------------------------|
D|-10~--------------------------------------------------------------------|
A|------------------------------------------------------------------------|
E|------------------------------------------------------------------------|
+
E|------------------------------------------------------------------------|
B|-------------------------------8~---------------------------------------|
G|-------------------------8-h10-------------------------10~---------8~---|
D|-------------------8-h10------------------------------------------------|
A|------------------------------------------------------------------------|
E|------------------------------------------------------------------------|
+
E|------------------------------------------------------------------------|
B|------------------------------------------------------------------------|
G|------------------------------------------------------------------------|
D|-------10~--------------------------------------------------------------|
A|------------------------------------------------------------------------|
E|------------------------------------------------------------------------|
+
E|------------------------------------------------------------------------|
B|-------------------8~----------9~----------11~--------------/13---------|
G|-------------8-h10------------------------------------------------------|
D|-------8-h10------------------------------------------------------------|
A|------------------------------------------------------------------------|
E|------------------------------------------------------------------------|
+
E|------------------------------------------------------------------------|
B|-13~--------------------------------/16~--------------------------------|
G|------------------------------------------------------------------------|
D|------------------------------------------------------------------------|
A|------------------------------------------------------------------------|
E|------------------------------------------------------------------------|
+
E|------------------------------------------------------------------------|
B|/18~---------------------------16h18-16h18----16h18-16h18----16h18------|
G|------------------------------------------------------------------------|
D|------------------------------------------------------------------------|
A|------------------------------------------------------------------------|
E|------------------------------------------------------------------------|
+
E|------------------------------------------------------------------------|
B|-16~---------------13~---------11~---------------------9--9--9----------|
G|------------------------------------------------------------------------|
D|------------------------------------------------------------------------|
A|------------------------------------------------------------------------|
E|------------------------------------------------------------------------|
+
E|------------------------------------------------------------------------|
B|-8~----------------8-h9-p8----------------------------------------------|
G|-------------------------------------10~---------8~---------------------|
D|-------------------------------------------------------------10----8----|
A|------------------------------------------------------------------------|
E|------------------------------------------------------------------------|
+
E|------------------------------------------------------------------------|
B|------------------------------------------------------------------------|
G|------------------------------------------------------------------------|
D|-10~--------------------------------------------------------------------|
A|------------------------------------------------------------------------|
E|------------------------------------------------------------------------|
+
E|------------------------------------------------------------------------|
B|------------------------------------------------------------------------|
G|------------------------------------------------------------------------|
D|------------------------------------------------------------------------|
A|------------------------------------------------------------------------|
E|------------------------------------------------------------------------|



FINALE:
E|------------------------------------------------------|
B|------------------------------------------------------|
G|------------------------------------------------------|
D|-5-----#-----------5----------------------------------|
A|-3-----#-----------3----------------------------------|
E|------------------------------------------------------|



SONG STRUCTURE:

INTRO
VERSE
CHORUS
INTERLUDE
VERSE
CHORUS
BRIDGE (more TBA)
CHORUS
FINALE



That's it.  Please leave any comments, questions, or requests.  Cheers!
-Bennyshambles78-


Добавлено: 05.12.2015
Вам также может быть интересно:
Другие материалы по этой песне:
  • Аккорды и текст

Страница создана 05.12.2015
http://primanota.ru/sensations-fix/strange-about-your-hands-chords.htm
Привет, Гость.
Предлагаем пройти революционный курс по гитаре.
Подарок от PrimaNota.Ru, забирай!