PrimaNota.ru - самый крупный в мире бесплатный архив песенных текстов, аккордов, табулатур и нот


Sensations Fix - Map - таба, видео

Регистрация Запомнить меня
Войти через:  Facebook Google Twitter Vk Yandex Mail.ru

Sensations Fix - Map - таба, видео

Печатать
Просмотров: 74
ARTIST: Sensations' Fix
SONG: "Map"
ALBUM: Finest Finger (1976)



TUNING: Standard



PART I:
E|------------------------------------------------||
B|------------------------------------------------||
G|------------------------------------------------|| x 3
D|-------7--------10-------12-------14-------17---||
A|-0--0-----0--0-----0--0-----0--0-----0--0-----0-||
E|------------------------------------------------||
+
E|------------------------------------------------||
B|------------------------------------------------||
G|------------------------------------------------|| x 4
D|------------------------------------------------||
A|-------7--------10-------12-------14-------17---||
E|-0--0-----0--0-----0--0-----0--0-----0--0-----0-||
+
E|------------------------------------------------||
B|------------------------------------------------||
G|------------------------------------------------|| x 4
D|-------7--------10-------12-------14-------17---||
A|-0--0-----0--0-----0--0-----0--0-----0--0-----0-||
E|------------------------------------------------||



PART II:
E|----------------0-------------------------------||
B|----------0--------0----------------------------||
G|-------5--------------5--------------5--------0-|| x 4
D|----7--------------------7--------7--------7----||
A|-0-----------------------------7--------5-------||
E|------------------------------------------------||
+
E|----------------0-------------------------------||
B|----------8--------8----------------------------||
G|-------12-------------12-------------12-------12|| x 4
D|----10-------------------10-------10-------10---||
A|-0-----------------------------10-------8-------||
E|------------------------------------------------||
+
E|----------------0-------------------------------||
B|----------0--------0----------------------------||
G|-------5--------------5--------------5--------0-|| x 4
D|----7--------------------7--------7--------7----||
A|-0-----------------------------7--------5-------||
E|------------------------------------------------||
+
E|----------------0-------------------------------||
B|----------8--------8----------------------------||
G|-------12-------------12-------------12-------12|| x 4
D|----10-------------------10-------10-------10---||
A|-0-----------------------------10-------8-------||
E|------------------------------------------------||
+
E|----------------0-------------------------------||
B|----------0--------0----------------------------||
G|-------5--------------5--------------5--------0-|| x 4
D|----7--------------------7--------7--------7----||
A|-0-----------------------------7--------5-------||
E|------------------------------------------------||



PART III:
E|----------------0-----------------------------0-------------||
B|----------2--------2--------------------3--------3----------||
G|-------0--------------0--------------0----------------------|| x 4
D|----2--------------------2--------2-------------------------||
A|-0-----------------------------0----------------------------||
E|------------------------------------------------------------||
+
E|------------------------------------------------||
B|-------------------------------------3----------||
G|-------0--------0--------0--------0-----0-------|| x 4
D|----2--------5--------2--------0-----------0----||
A|-0--------5--------3--------2-------------------||
E|------------------------------------------------||



PART IV:
E|----------------0-------------------------------||
B|----------0--------0----------------------------||
G|-------5--------------5--------------5--------0-|| x 4
D|----7--------------------7--------7--------7----||
A|-0-----------------------------7--------5-------||
E|------------------------------------------------||
+
E|----------------0-------------------------------||
B|----------8--------8----------------------------||
G|-------12-------------12-------------12-------12|| x 4
D|----10-------------------10-------10-------10---||
A|-0-----------------------------10-------8-------||
E|------------------------------------------------||
+
E|----------------0-------------------------------||
B|----------0--------0----------------------------||
G|-------5--------------5--------------5--------0-|| x 4
D|----7--------------------7--------7--------7----||
A|-0-----------------------------7--------5-------||
E|------------------------------------------------||



PART V:
E|------------------------------------------------||
B|------------------------------------------------||
G|------------------------------------------------|| x 4
D|-------7--------10-------12-------14-------17---||
A|-0--0-----0--0-----0--0-----0--0-----0--0-----0-||
E|------------------------------------------------||
+
E|------------------------------------------------||
B|------------------------------------------------||
G|------------------------------------------------|| x 4
D|------------------------------------------------||
A|-------7--------10-------12-------14-------17---||
E|-0--0-----0--0-----0--0-----0--0-----0--0-----0-||
+
E|------------------------------------------------||
B|------------------------------------------------||
G|------------------------------------------------|| x 3
D|-------7--------10-------12-------14-------17---||
A|-0--0-----0--0-----0--0-----0--0-----0--0-----0-||
E|------------------------------------------------||
+
E|------------------------------------------------|
B|------------------------------------------------|
G|------------------------------------------------|
D|------------------------------------------------|
A|/12-------10-------7--------5--------3~-------0-|
E|------------------------------------------------|



SONG STRUCTURE:

PART I
PART II
PART III
PART IV
PART III
PART V



That's it.  Please leave any comments, questions, or requests.  Cheers!
-Bennyshambles78-


Добавлено: 05.12.2015
Другие материалы по этой песне:
  • Аккорды и текст

Страница создана 05.12.2015
http://primanota.ru/sensations-fix/map-chords.htm
Привет, Гость.
Предлагаем пройти революционный курс по гитаре.
Подарок от PrimaNota.Ru, забирай!